  0
SECTION
  2
HEADER
  9
$ACADVER
  1
AC1002
  9
$USERI1
 70
3599
  9
$INSBASE
 10
0.000000
 20
0.000000
  9
$EXTMIN
 10
-0.000072
 20
0.000000
  9
$EXTMAX
 10
118.900002
 20
59.400002
  9
$LIMMIN
 10
0.000000
 20
0.000000
  9
$LIMMAX
 10
12.000000
 20
9.000000
  9
$VIEWCTR
 10
59.449965
 20
29.700001
  9
$VIEWSIZE
 40
118.900074
  9
$TEXTSIZE
 40
0.100000
  9
$TRACEWID
 40
0.010000
  9
$LTSCALE
 40
1.000000
  0
ENDSEC
  0
SECTION
  2
TABLES
  0
TABLE
  2
LTYPE
 70
     3
  0
LTYPE
  2
CONTINUOUS
 70
    64
  3
Solid line
 72
    65
 73
     0
 40
0.000000
  0
LTYPE
  2
ESTILO_TQS_0001
 70
    64
  3
-  -  -  -  -  -
 72
    65
 73
     2
 40
1.000000
 49
0.700000
 49
-0.300000
  0
LTYPE
  2
ESTILO_TQS_0002
 70
    64
  3
. . . . . . . .
 72
    65
 73
     2
 40
0.400000
 49
0.100000
 49
-0.300000
  0
LTYPE
  2
ESTILO_TQS_0003
 70
    64
  3
- . - . - . - .
 72
    65
 73
     4
 40
1.500000
 49
0.500000
 49
-0.400000
 49
0.100000
 49
-0.500000
  0
LTYPE
  2
ESTILO_TQS_0004
 70
    64
  3
- .. - .. - ..
 72
    65
 73
     6
 40
2.000000
 49
0.500000
 49
-0.400000
 49
0.100000
 49
-0.400000
 49
0.100000
 49
-0.500000
  0
LTYPE
  2
ESTILO_TQS_0005
 70
    64
  3
- - - - - - - -
 72
    65
 73
     2
 40
0.400000
 49
0.300000
 49
-0.100000
  0
ENDTAB
  0
TABLE
  2
LAYER
 70
    89
  0
LAYER
  2
0
 70
     0
 62
     7
  6
CONTINUOUS
  0
LAYER
  2
1
 70
     0
 62
     1
  6
CONTINUOUS
  0
LAYER
  2
2
 70
     0
 62
     2
  6
CONTINUOUS
  0
LAYER
  2
3
 70
     0
 62
   254
  6
CONTINUOUS
  0
LAYER
  2
4
 70
     0
 62
     4
  6
CONTINUOUS
  0
LAYER
  2
5
 70
     0
 62
     5
  6
CONTINUOUS
  0
LAYER
  2
6
 70
     0
 62
     6
  6
CONTINUOUS
  0
LAYER
  2
7
 70
     0
 62
     7
  6
CONTINUOUS
  0
LAYER
  2
8
 70
     0
 62
   241
  6
CONTINUOUS
  0
LAYER
  2
9
 70
     0
 62
   254
  6
CONTINUOUS
  0
LAYER
  2
10
 70
     0
 62
   240
  6
CONTINUOUS
  0
LAYER
  2
11
 70
     0
 62
   241
  6
CONTINUOUS
  0
LAYER
  2
12
 70
     0
 62
   242
  6
CONTINUOUS
  0
LAYER
  2
13
 70
     0
 62
   243
  6
CONTINUOUS
  0
LAYER
  2
14
 70
     0
 62
     8
  6
CONTINUOUS
  0
LAYER
  2
15
 70
     0
 62
   245
  6
CONTINUOUS
  0
LAYER
  2
16
 70
     0
 62
     7
  6
CONTINUOUS
  0
LAYER
  2
17
 70
     0
 62
     2
  6
CONTINUOUS
  0
LAYER
  2
18
 70
     0
 62
   241
  6
CONTINUOUS
  0
LAYER
  2
19
 70
     0
 62
   241
  6
CONTINUOUS
  0
LAYER
  2
20
 70
     0
 62
     7
  6
CONTINUOUS
  0
LAYER
  2
21
 70
     0
 62
     2
  6
CONTINUOUS
  0
LAYER
  2
22
 70
     0
 62
     1
  6
CONTINUOUS
  0
LAYER
  2
23
 70
     0
 62
     7
  6
CONTINUOUS
  0
LAYER
  2
24
 70
     0
 62
     6
  6
CONTINUOUS
  0
LAYER
  2
25
 70
     0
 62
     1
  6
CONTINUOUS
  0
LAYER
  2
26
 70
     0
 62
     3
  6
CONTINUOUS
  0
LAYER
  2
27
 70
     0
 62
     4
  6
CONTINUOUS
  0
LAYER
  2
28
 70
     0
 62
     4
  6
CONTINUOUS
  0
LAYER
  2
29
 70
     0
 62
     2
  6
CONTINUOUS
  0
LAYER
  2
30
 70
     0
 62
     4
  6
CONTINUOUS
  0
LAYER
  2
31
 70
     0
 62
     2
  6
CONTINUOUS
  0
LAYER
  2
32
 70
     0
 62
     2
  6
CONTINUOUS
  0
LAYER
  2
33
 70
     0
 62
     2
  6
CONTINUOUS
  0
LAYER
  2
34
 70
     0
 62
     2
  6
CONTINUOUS
  0
LAYER
  2
35
 70
     0
 62
     2
  6
CONTINUOUS
  0
LAYER
  2
36
 70
     0
 62
     2
  6
CONTINUOUS
  0
LAYER
  2
37
 70
     0
 62
     2
  6
CONTINUOUS
  0
LAYER
  2
38
 70
     0
 62
     2
  6
CONTINUOUS
  0
LAYER
  2
39
 70
     0
 62
     2
  6
CONTINUOUS
  0
LAYER
  2
40
 70
     0
 62
     2
  6
CONTINUOUS
  0
LAYER
  2
41
 70
     0
 62
     2
  6
CONTINUOUS
  0
LAYER
  2
42
 70
     0
 62
     2
  6
CONTINUOUS
  0
LAYER
  2
43
 70
     0
 62
     2
  6
CONTINUOUS
  0
LAYER
  2
44
 70
     0
 62
     2
  6
CONTINUOUS
  0
LAYER
  2
45
 70
     0
 62
     2
  6
CONTINUOUS
  0
LAYER
  2
46
 70
     0
 62
     2
  6
CONTINUOUS
  0
LAYER
  2
47
 70
     0
 62
     2
  6
CONTINUOUS
  0
LAYER
  2
48
 70
     0
 62
     2
  6
CONTINUOUS
  0
LAYER
  2
49
 70
     0
 62
     2
  6
CONTINUOUS
  0
LAYER
  2
50
 70
     0
 62
     2
  6
CONTINUOUS
  0
LAYER
  2
51
 70
     0
 62
     2
  6
CONTINUOUS
  0
LAYER
  2
52
 70
     0
 62
     2
  6
CONTINUOUS
  0
LAYER
  2
53
 70
     0
 62
     2
  6
CONTINUOUS
  0
LAYER
  2
54
 70
     0
 62
     2
  6
CONTINUOUS
  0
LAYER
  2
55
 70
     0
 62
     2
  6
CONTINUOUS
  0
LAYER
  2
56
 70
     0
 62
     2
  6
CONTINUOUS
  0
LAYER
  2
57
 70
     0
 62
     2
  6
CONTINUOUS
  0
LAYER
  2
58
 70
     0
 62
     2
  6
CONTINUOUS
  0
LAYER
  2
59
 70
     0
 62
     2
  6
CONTINUOUS
  0
LAYER
  2
60
 70
     0
 62
     2
  6
CONTINUOUS
  0
LAYER
  2
61
 70
     0
 62
     2
  6
CONTINUOUS
  0
LAYER
  2
62
 70
     0
 62
     2
  6
CONTINUOUS
  0
LAYER
  2
63
 70
     0
 62
     2
  6
CONTINUOUS
  0
LAYER
  2
64
 70
     0
 62
     2
  6
CONTINUOUS
  0
LAYER
  2
65
 70
     0
 62
     2
  6
CONTINUOUS
  0
LAYER
  2
66
 70
     0
 62
     2
  6
CONTINUOUS
  0
LAYER
  2
67
 70
     0
 62
     2
  6
CONTINUOUS
  0
LAYER
  2
68
 70
     0
 62
     2
  6
CONTINUOUS
  0
LAYER
  2
69
 70
     0
 62
     2
  6
CONTINUOUS
  0
LAYER
  2
70
 70
     0
 62
     2
  6
CONTINUOUS
  0
LAYER
  2
71
 70
     0
 62
     2
  6
CONTINUOUS
  0
LAYER
  2
72
 70
     0
 62
     2
  6
CONTINUOUS
  0
LAYER
  2
73
 70
     0
 62
     2
  6
CONTINUOUS
  0
LAYER
  2
74
 70
     0
 62
     2
  6
CONTINUOUS
  0
LAYER
  2
75
 70
     0
 62
     2
  6
CONTINUOUS
  0
LAYER
  2
76
 70
     0
 62
     2
  6
CONTINUOUS
  0
LAYER
  2
77
 70
     0
 62
     2
  6
CONTINUOUS
  0
LAYER
  2
78
 70
     0
 62
     2
  6
CONTINUOUS
  0
LAYER
  2
79
 70
     0
 62
     2
  6
CONTINUOUS
  0
LAYER
  2
80
 70
     0
 62
     2
  6
CONTINUOUS
  0
LAYER
  2
81
 70
     0
 62
     2
  6
CONTINUOUS
  0
LAYER
  2
82
 70
     0
 62
     2
  6
CONTINUOUS
  0
LAYER
  2
83
 70
     0
 62
     2
  6
CONTINUOUS
  0
LAYER
  2
84
 70
     0
 62
     2
  6
CONTINUOUS
  0
LAYER
  2
85
 70
     0
 62
     2
  6
CONTINUOUS
  0
LAYER
  2
86
 70
     0
 62
     2
  6
CONTINUOUS
  0
LAYER
  2
87
 70
     0
 62
     2
  6
CONTINUOUS
  0
LAYER
  2
88
 70
     0
 62
     2
  6
CONTINUOUS
  0
LAYER
  2
89
 70
     0
 62
     2
  6
CONTINUOUS
  0
LAYER
  2
90
 70
     0
 62
     2
  6
CONTINUOUS
  0
LAYER
  2
91
 70
     0
 62
     2
  6
CONTINUOUS
  0
LAYER
  2
92
 70
     0
 62
     2
  6
CONTINUOUS
  0
LAYER
  2
93
 70
     0
 62
     2
  6
CONTINUOUS
  0
LAYER
  2
94
 70
     0
 62
     2
  6
CONTINUOUS
  0
LAYER
  2
95
 70
     0
 62
     2
  6
CONTINUOUS
  0
LAYER
  2
96
 70
     0
 62
     2
  6
CONTINUOUS
  0
LAYER
  2
97
 70
     0
 62
     2
  6
CONTINUOUS
  0
LAYER
  2
98
 70
     0
 62
     2
  6
CONTINUOUS
  0
LAYER
  2
99
 70
     0
 62
     2
  6
CONTINUOUS
  0
LAYER
  2
100
 70
     0
 62
     1
  6
CONTINUOUS
  0
LAYER
  2
101
 70
     0
 62
   254
  6
CONTINUOUS
  0
LAYER
  2
102
 70
     0
 62
     7
  6
CONTINUOUS
  0
LAYER
  2
103
 70
     0
 62
     2
  6
CONTINUOUS
  0
LAYER
  2
104
 70
     0
 62
   241
  6
CONTINUOUS
  0
LAYER
  2
105
 70
     0
 62
     3
  6
CONTINUOUS
  0
LAYER
  2
106
 70
     0
 62
     5
  6
CONTINUOUS
  0
LAYER
  2
107
 70
     0
 62
     3
  6
CONTINUOUS
  0
LAYER
  2
108
 70
     0
 62
     5
  6
CONTINUOUS
  0
LAYER
  2
109
 70
     0
 62
     3
  6
CONTINUOUS
  0
LAYER
  2
110
 70
     0
 62
     2
  6
CONTINUOUS
  0
LAYER
  2
111
 70
     0
 62
     1
  6
CONTINUOUS
  0
LAYER
  2
112
 70
     0
 62
     2
  6
CONTINUOUS
  0
LAYER
  2
113
 70
     0
 62
     2
  6
CONTINUOUS
  0
LAYER
  2
114
 70
     0
 62
     2
  6
CONTINUOUS
  0
LAYER
  2
115
 70
     0
 62
     2
  6
CONTINUOUS
  0
LAYER
  2
116
 70
     0
 62
     2
  6
CONTINUOUS
  0
LAYER
  2
117
 70
     0
 62
     2
  6
CONTINUOUS
  0
LAYER
  2
118
 70
     0
 62
     2
  6
CONTINUOUS
  0
LAYER
  2
119
 70
     0
 62
     2
  6
CONTINUOUS
  0
LAYER
  2
120
 70
     0
 62
     2
  6
CONTINUOUS
  0
LAYER
  2
121
 70
     0
 62
     2
  6
CONTINUOUS
  0
LAYER
  2
122
 70
     0
 62
     2
  6
CONTINUOUS
  0
LAYER
  2
123
 70
     0
 62
     2
  6
CONTINUOUS
  0
LAYER
  2
124
 70
     0
 62
     2
  6
CONTINUOUS
  0
LAYER
  2
125
 70
     0
 62
     2
  6
CONTINUOUS
  0
LAYER
  2
126
 70
     0
 62
     2
  6
CONTINUOUS
  0
LAYER
  2
127
 70
     0
 62
     2
  6
CONTINUOUS
  0
LAYER
  2
128
 70
     0
 62
     2
  6
CONTINUOUS
  0
LAYER
  2
129
 70
     0
 62
     2
  6
CONTINUOUS
  0
LAYER
  2
130
 70
     0
 62
     2
  6
CONTINUOUS
  0
LAYER
  2
131
 70
     0
 62
     2
  6
CONTINUOUS
  0
LAYER
  2
132
 70
     0
 62
     2
  6
CONTINUOUS
  0
LAYER
  2
133
 70
     0
 62
     2
  6
CONTINUOUS
  0
LAYER
  2
134
 70
     0
 62
     2
  6
CONTINUOUS
  0
LAYER
  2
135
 70
     0
 62
     2
  6
CONTINUOUS
  0
LAYER
  2
136
 70
     0
 62
     2
  6
CONTINUOUS
  0
LAYER
  2
137
 70
     0
 62
     2
  6
CONTINUOUS
  0
LAYER
  2
138
 70
     0
 62
     2
  6
CONTINUOUS
  0
LAYER
  2
139
 70
     0
 62
     2
  6
CONTINUOUS
  0
LAYER
  2
140
 70
     0
 62
     2
  6
CONTINUOUS
  0
LAYER
  2
141
 70
     0
 62
     2
  6
CONTINUOUS
  0
LAYER
  2
142
 70
     0
 62
     2
  6
CONTINUOUS
  0
LAYER
  2
143
 70
     0
 62
     2
  6
CONTINUOUS
  0
LAYER
  2
144
 70
     0
 62
     2
  6
CONTINUOUS
  0
LAYER
  2
145
 70
     0
 62
     2
  6
CONTINUOUS
  0
LAYER
  2
146
 70
     0
 62
     2
  6
CONTINUOUS
  0
LAYER
  2
147
 70
     0
 62
     2
  6
CONTINUOUS
  0
LAYER
  2
148
 70
     0
 62
     2
  6
CONTINUOUS
  0
LAYER
  2
149
 70
     0
 62
     2
  6
CONTINUOUS
  0
LAYER
  2
150
 70
     0
 62
     2
  6
CONTINUOUS
  0
LAYER
  2
151
 70
     0
 62
     2
  6
CONTINUOUS
  0
LAYER
  2
152
 70
     0
 62
     2
  6
CONTINUOUS
  0
LAYER
  2
153
 70
     0
 62
     2
  6
CONTINUOUS
  0
LAYER
  2
154
 70
     0
 62
     2
  6
CONTINUOUS
  0
LAYER
  2
155
 70
     0
 62
     2
  6
CONTINUOUS
  0
LAYER
  2
156
 70
     0
 62
     2
  6
CONTINUOUS
  0
LAYER
  2
157
 70
     0
 62
     2
  6
CONTINUOUS
  0
LAYER
  2
158
 70
     0
 62
     2
  6
CONTINUOUS
  0
LAYER
  2
159
 70
     0
 62
     2
  6
CONTINUOUS
  0
LAYER
  2
160
 70
     0
 62
     2
  6
CONTINUOUS
  0
LAYER
  2
161
 70
     0
 62
     7
  6
CONTINUOUS
  0
LAYER
  2
162
 70
     0
 62
     2
  6
CONTINUOUS
  0
LAYER
  2
163
 70
     0
 62
     2
  6
CONTINUOUS
  0
LAYER
  2
164
 70
     0
 62
     2
  6
CONTINUOUS
  0
LAYER
  2
165
 70
     0
 62
     2
  6
CONTINUOUS
  0
LAYER
  2
166
 70
     0
 62
     2
  6
CONTINUOUS
  0
LAYER
  2
167
 70
     0
 62
     4
  6
CONTINUOUS
  0
LAYER
  2
168
 70
     0
 62
     2
  6
CONTINUOUS
  0
LAYER
  2
169
 70
     0
 62
     3
  6
CONTINUOUS
  0
LAYER
  2
170
 70
     0
 62
     2
  6
CONTINUOUS
  0
LAYER
  2
171
 70
     0
 62
     2
  6
CONTINUOUS
  0
LAYER
  2
172
 70
     0
 62
     2
  6
CONTINUOUS
  0
LAYER
  2
173
 70
     0
 62
     2
  6
CONTINUOUS
  0
LAYER
  2
174
 70
     0
 62
     2
  6
CONTINUOUS
  0
LAYER
  2
175
 70
     0
 62
     2
  6
CONTINUOUS
  0
LAYER
  2
176
 70
     0
 62
     2
  6
CONTINUOUS
  0
LAYER
  2
177
 70
     0
 62
     2
  6
CONTINUOUS
  0
LAYER
  2
178
 70
     0
 62
     2
  6
CONTINUOUS
  0
LAYER
  2
179
 70
     0
 62
     2
  6
CONTINUOUS
  0
LAYER
  2
180
 70
     0
 62
     2
  6
CONTINUOUS
  0
LAYER
  2
181
 70
     0
 62
     2
  6
CONTINUOUS
  0
LAYER
  2
182
 70
     0
 62
     2
  6
CONTINUOUS
  0
LAYER
  2
183
 70
     0
 62
     2
  6
CONTINUOUS
  0
LAYER
  2
184
 70
     0
 62
     2
  6
CONTINUOUS
  0
LAYER
  2
185
 70
     0
 62
     2
  6
CONTINUOUS
  0
LAYER
  2
186
 70
     0
 62
     2
  6
CONTINUOUS
  0
LAYER
  2
187
 70
     0
 62
     2
  6
CONTINUOUS
  0
LAYER
  2
188
 70
     0
 62
     2
  6
CONTINUOUS
  0
LAYER
  2
189
 70
     0
 62
     2
  6
CONTINUOUS
  0
LAYER
  2
190
 70
     0
 62
     2
  6
CONTINUOUS
  0
LAYER
  2
191
 70
     0
 62
     2
  6
CONTINUOUS
  0
LAYER
  2
192
 70
     0
 62
     2
  6
CONTINUOUS
  0
LAYER
  2
193
 70
     0
 62
     2
  6
CONTINUOUS
  0
LAYER
  2
194
 70
     0
 62
     2
  6
CONTINUOUS
  0
LAYER
  2
195
 70
     0
 62
     2
  6
CONTINUOUS
  0
LAYER
  2
196
 70
     0
 62
     2
  6
CONTINUOUS
  0
LAYER
  2
197
 70
     0
 62
     3
  6
CONTINUOUS
  0
LAYER
  2
198
 70
     0
 62
     2
  6
CONTINUOUS
  0
LAYER
  2
199
 70
     0
 62
     6
  6
CONTINUOUS
  0
LAYER
  2
200
 70
     0
 62
     7
  6
ESTILO_TQS_0002
  0
LAYER
  2
201
 70
     0
 62
     7
  6
ESTILO_TQS_0001
  0
LAYER
  2
202
 70
     0
 62
     7
  6
CONTINUOUS
  0
LAYER
  2
203
 70
     0
 62
     7
  6
ESTILO_TQS_0001
  0
LAYER
  2
204
 70
     0
 62
     7
  6
ESTILO_TQS_0003
  0
LAYER
  2
205
 70
     0
 62
     5
  6
ESTILO_TQS_0004
  0
LAYER
  2
206
 70
     0
 62
   245
  6
CONTINUOUS
  0
LAYER
  2
207
 70
     0
 62
     2
  6
CONTINUOUS
  0
LAYER
  2
208
 70
     0
 62
     5
  6
CONTINUOUS
  0
LAYER
  2
209
 70
     0
 62
    -3
  6
CONTINUOUS
  0
LAYER
  2
210
 70
     0
 62
   245
  6
ESTILO_TQS_0002
  0
LAYER
  2
211
 70
     0
 62
     7
  6
ESTILO_TQS_0001
  0
LAYER
  2
212
 70
     0
 62
     7
  6
CONTINUOUS
  0
LAYER
  2
213
 70
     0
 62
     1
  6
CONTINUOUS
  0
LAYER
  2
214
 70
     0
 62
   245
  6
CONTINUOUS
  0
LAYER
  2
215
 70
     0
 62
     2
  6
CONTINUOUS
  0
LAYER
  2
216
 70
     0
 62
     3
  6
CONTINUOUS
  0
LAYER
  2
217
 70
     0
 62
     3
  6
CONTINUOUS
  0
LAYER
  2
218
 70
     0
 62
     2
  6
CONTINUOUS
  0
LAYER
  2
219
 70
     0
 62
   245
  6
CONTINUOUS
  0
LAYER
  2
220
 70
     0
 62
   240
  6
CONTINUOUS
  0
LAYER
  2
221
 70
     0
 62
   241
  6
CONTINUOUS
  0
LAYER
  2
222
 70
     0
 62
   242
  6
CONTINUOUS
  0
LAYER
  2
223
 70
     0
 62
     6
  6
CONTINUOUS
  0
LAYER
  2
224
 70
     0
 62
     1
  6
CONTINUOUS
  0
LAYER
  2
225
 70
     0
 62
   245
  6
CONTINUOUS
  0
LAYER
  2
226
 70
     0
 62
     2
  6
CONTINUOUS
  0
LAYER
  2
227
 70
     0
 62
   240
  6
CONTINUOUS
  0
LAYER
  2
228
 70
     0
 62
   241
  6
CONTINUOUS
  0
LAYER
  2
229
 70
     0
 62
   242
  6
CONTINUOUS
  0
LAYER
  2
230
 70
     0
 62
     6
  6
CONTINUOUS
  0
LAYER
  2
231
 70
     0
 62
     3
  6
CONTINUOUS
  0
LAYER
  2
232
 70
     0
 62
   242
  6
CONTINUOUS
  0
LAYER
  2
233
 70
     0
 62
     4
  6
CONTINUOUS
  0
LAYER
  2
234
 70
     0
 62
   243
  6
CONTINUOUS
  0
LAYER
  2
235
 70
     0
 62
     5
  6
CONTINUOUS
  0
LAYER
  2
236
 70
     0
 62
     2
  6
CONTINUOUS
  0
LAYER
  2
237
 70
     0
 62
     6
  6
CONTINUOUS
  0
LAYER
  2
238
 70
     0
 62
   242
  6
CONTINUOUS
  0
LAYER
  2
239
 70
     0
 62
   241
  6
CONTINUOUS
  0
LAYER
  2
240
 70
     0
 62
   241
  6
CONTINUOUS
  0
LAYER
  2
241
 70
     0
 62
   242
  6
CONTINUOUS
  0
LAYER
  2
242
 70
     0
 62
     4
  6
CONTINUOUS
  0
LAYER
  2
243
 70
     0
 62
     2
  6
CONTINUOUS
  0
LAYER
  2
244
 70
     0
 62
   240
  6
CONTINUOUS
  0
LAYER
  2
245
 70
     0
 62
   240
  6
CONTINUOUS
  0
LAYER
  2
246
 70
     0
 62
   244
  6
CONTINUOUS
  0
LAYER
  2
247
 70
     0
 62
     7
  6
CONTINUOUS
  0
LAYER
  2
248
 70
     0
 62
     7
  6
CONTINUOUS
  0
LAYER
  2
249
 70
     0
 62
     3
  6
CONTINUOUS
  0
LAYER
  2
250
 70
     0
 62
     7
  6
CONTINUOUS
  0
LAYER
  2
251
 70
     0
 62
     1
  6
CONTINUOUS
  0
LAYER
  2
252
 70
     0
 62
     1
  6
CONTINUOUS
  0
LAYER
  2
253
 70
     0
 62
    -4
  6
CONTINUOUS
  0
LAYER
  2
254
 70
     0
 62
  -240
  6
CONTINUOUS
  0
LAYER
  2
255
 70
     0
 62
  -244
  6
CONTINUOUS
  0
ENDTAB
  0
TABLE
  2
STYLE
 70
     1
  0
STYLE
  2
STANDARD
 70
    64
 40
0.000000
 41
1.000000
 50
0.000000
 71
     0
 42
0.200000
  3
ROMANS.SHX
  4

  0
ENDTAB
  0
TABLE
  2
VIEW
 70
     0
  0
ENDTAB
  0
ENDSEC
  0
SECTION
  2
BLOCKS
  0
BLOCK
  8
0
  2
_POINT
 70
    64
 10
0.000000
 20
0.000000
  0
LINE
  8
0
 10
0.000000
 20
-0.100000
 11
0.000000
 21
0.100000
  0
ENDBLK
  8
0
  0
BLOCK
  8
0
  2
ACAD0001
 70
    64
 10
0.000000
 20
0.000000
  0
ENDBLK
  8
0
  0
BLOCK
  8
0
  2
ACAD0002
 70
    64
 10
0.000000
 20
0.000000
  0
ENDBLK
  8
0
  0
BLOCK
  8
0
  2
_PLWTQS
 70
    64
 10
0.000000
 20
0.000000
  0
TEXT
  8
0
  6
CONTINUOUS
 10
0.000000
 20
0.000000
 40
0.200000
  1
$PLWDWGGlBMVwAAAAAAAChAAwAAACQI4KvVOkTdqjahDF9EGoX1gHimuWj6CLg3o1FjY/xS9i0EAGmILyjd8o1R+nqgBJPD1Q5Mh4u3YaBywphewgT15i6TM/z1/EbwQ93z7I1MWCbaGcmS4pSB3PzrzNhzzhE6dOHlDXAOVMa0mO2P+fs=
  0
TEXT
  8
0
  6
CONTINUOUS
 10
0.000000
 20
-0.250000
 40
0.200000
  1
$PLWDWGl0zUFqp/Q78YqfTLcfUArlwk0jqlg3oM+0RVqE1rKqSGgzjL/Wu6gT3/KgIesBihNsMEeboqmRsnPCjTFdP4HzeQSleY2rFlglUca60+RIvdGZFSTp5K0i9mYd9G4wHkvFPL0KVezBGwxAKNCTtQoIIj6osE2F28dFCvJPi6ZeM=
  0
TEXT
  8
0
  6
CONTINUOUS
 10
0.000000
 20
-0.500000
 40
0.200000
  1
$PLWDWGygb4mV3phEhW9VwpoOUqWrXj+VqwEK5bX6qSKC4+CHvWJ8/0L13gP6XysMN/ZJU1P900t656XaMeNSjeoAwaNsWN0yM7IOfotxIIx6DtegBqP1YZdhO+Dlx2AqP0A27dVmZ/d7FhDtp0TbBPPBvGUxWo+QUFC7MTNL377oDQesQ=
  0
TEXT
  8
0
  6
CONTINUOUS
 10
0.000000
 20
-0.750000
 40
0.200000
  1
$PLWDWGGi7ZNfMBQmqh6z/n20j/S8nP29eViyTg6TirxYr96XVNf0Y+ayiZ/NCNHUm0cmfqfn4cdj9pI4RrariIfwC4+D03dhbW3NW0ZeMigRJlNlue+lBgi45ebuHpRdgRR6BimT3vuA4Pbf0nUi9FyUoSmWWeo3Kqgm8FoWr88q3fzcQ=
  0
TEXT
  8
0
  6
CONTINUOUS
 10
0.000000
 20
-1.000000
 40
0.200000
  1
$PLWDWGt25C/+UdYaPh9ck7bOSOtHVs31t1sQjewH+VqSyPwk9199Y53esgxHKEkneBpamxPNYuVqL91dM33bTBpvl/2XzctHIyORlHfJOK4C27RhDnqkPvbsJc0cENCLdMclA0psd7jlnXKPmIw0JmEZ2+bf6xHk2wsfGEJp/uZEnblvg=
  0
TEXT
  8
0
  6
CONTINUOUS
 10
0.000000
 20
-1.250000
 40
0.200000
  1
$PLWDWGebum9Kvx92De12OI2WhO4Lr+VQT5DD+t1km7D/07B9eSOgreSzHpmqShUY1v66So4tP6prO1ofL3/M9yL5vksbdC1pzXCx8CXE0qPg0FXUR3z0t8TKHUyqQGlH3MTy2IlZr+GYZXqNeNGaZCEKtAsE8Hdni8pw7F77k9/9L3TAs=
  0
TEXT
  8
0
  6
CONTINUOUS
 10
0.000000
 20
-1.500000
 40
0.200000
  1
$PLWDWGqptYBGqIcSeiQOADo9dTH1UZ5lNz9/yYTrEu9kfpCjl/74UpnZqHm9QzIZh/RLuuLbcyIQiUIArek85o6O5pdQL9te4YqOcGicDOom5hRdX321Du714k4XUPghgAUSWCgIIKhORe+iI0cqkkqzCSylzrcOP038BzsLOTx6PmHh8=
  0
TEXT
  8
0
  6
CONTINUOUS
 10
0.000000
 20
-1.750000
 40
0.200000
  1
$PLWDWGYBEqhZSoU4JXoNoHpliNQEHBw+qIwZv+bt7maU81w7Gup2R5rJxKxaL4eAdmrShx7lA9WpiQtPmXwf+pTGXKJ06si61CeAlHx5Yos32DHw87dTwFgtVpsm1XCai+j0ZNeHbpl/OSyAuSylYuSjguKui2OgBl9CYrIrufOAigzws=
  0
TEXT
  8
0
  6
CONTINUOUS
 10
0.000000
 20
-2.000000
 40
0.200000
  1
$PLWDWGUQaCLLrxvHAEunJj2Zfefqx681HKCEwGMS9RvyrUHDqFDSGa1MADmxHLO7R9sTGylVsvuFxg0tBiOfAc/hi6EX6lokVI6akK7R6YnhCKDHJTXs2SrNYbWu1dqyPuuXkjGjFrb2KbIPSEwvt9QixbjMMKiqhF6+sY2b7cDAUe1lg=
  0
TEXT
  8
0
  6
CONTINUOUS
 10
0.000000
 20
-2.250000
 40
0.200000
  1
$PLWDWGj+fMq4fwTJiiuqKoVtyQ7wMSF30kPGKBXupZ/Rdb2RbMY+WifNVzIKfNiOL0JJrI8NLUPBt8Bs8z1xaC+QFxDuj8P0h5Bl2H/+tDvNa1hWPwlYlGQYcKZwraM2DG3Nt1Hf3LQKBSVoOpjLYQo16QB6V3HNio/wECXmKkA70tnfw=
  0
TEXT
  8
0
  6
CONTINUOUS
 10
0.000000
 20
-2.500000
 40
0.200000
  1
$PLWDWGkC2ZoJYbuZjAcljclt5o6bFSusvB51gL0yvITY79mfAIldAJWe22PVoLdctVyce6SlZ/GqfkC77xAu1+2lEwAz29c4tS3L7hLlImu42BVxcyosgv9XkL/2wj9z8yJ7LuH1FYCkuUxtQzl972UoYXxf7v+N4lTUOltcVwt9QzJ44=
  0
TEXT
  8
0
  6
CONTINUOUS
 10
0.000000
 20
-2.750000
 40
0.200000
  1
$PLWDWGewXPkCr7BBhhxOafBur1M8Pd5YoFPUPkIKI4Vxc6DcxPQnKrSnxKINfPJryAWhSWJ46gNeJNNl0ufiFyxbB+rxWtq8ziP3WEnJ466tbdTiURHa3b1MzPMwVJLO6GIF96xqxnBk6eQ44tlytHjnDWvyrTL8KAxLIvzNcugw4fWO0=
  0
TEXT
  8
0
  6
CONTINUOUS
 10
0.000000
 20
-3.000000
 40
0.200000
  1
$PLWDWGG3OchY9E8t4E3wdH4hcXdOlhYcG0V3asK7vorWKOrIy7PWnpXBN9eU72l2cApPuhgckJr/GZHpEmTvc2KEN7L/vEngR0zsS+hVGJYtHUDobjELMyHhsMi/uqvqMK2W3h3+m04v9WHgb2tDidTXG/KmGoXtsHDWc5aj6EzmT8TIk=
  0
TEXT
  8
0
  6
CONTINUOUS
 10
0.000000
 20
-3.250000
 40
0.200000
  1
$PLWDWGjc8j7Knmj3zbHWmAmivLM6t8PV+qmUHAwsT6TOp7zqjhBe12XpxhUl0dwYMIjmvexw26NiojkedA6B//J23Q4W147epCGEMcLMWmeMJBGLfrxaT+SsQLZlkCfnqZ2Sk6tIHse/NVuiWceh3qk4M8IbbCjI0FjoieLwo1GK+2Y9Y=
  0
TEXT
  8
0
  6
CONTINUOUS
 10
0.000000
 20
-3.500000
 40
0.200000
  1
$PLWDWGAN+aYTpzuTYeSkpq1/3N8gJ+did1DRP4RXr3XgDIAv2midBStLLV2A12f5935BhkTUQ4zx/eMratdbM+X0N0xkkPBtK+BVkKgN1eclE72wY6mgYVyLXG/Yxz9ALwF1l0HI9pDHLBXV5ymbfgWt7uDDb3rFY06U5stdGa+epbiYg=
  0
TEXT
  8
0
  6
CONTINUOUS
 10
0.000000
 20
-3.750000
 40
0.200000
  1
$PLWDWG4PNwsne6adTLB0Dh0I/SGi6XwJ9nec4qjEYff+1ACHuWfvx+kXS0b4kUL3nP8HoPA0+DLEtrq1AEjvGfdUNEQEUVwuyDcs3YpAzqnBpDREBhwpewTZJ6FmLBF691fJZz95QJ52K4ERS1nFdSyN65Y1ZZ6x+PSt46caAVHtOvUWA=
  0
TEXT
  8
0
  6
CONTINUOUS
 10
0.000000
 20
-4.000000
 40
0.200000
  1
$PLWDWG/xbWeGlmVN/ZTHIB6yvmkOvRw8ySTJjX4thfSnM7Z+6uvFQO3vyPkmqtsqpdA5Szid0wtICUV7IwWNTYdvyAJfLrnVCd9RdEC1wYEJEZvFQBBC9gM2K+naWcbm8bd0SVwpjiE+T+YK2AVMjOivhfXHgt7s7KpoPeneLsfbPtGow=
  0
TEXT
  8
0
  6
CONTINUOUS
 10
0.000000
 20
-4.250000
 40
0.200000
  1
$PLWDWGYrkiDCoXt5fpVKsCkwVuCHYKtf9kVq3QGmosZb5cfZVnzad1KdxKiwPcgt7YZLRFw55RQuU/2/bGPPOTgF08g1wPkiVu2BDrBu1VFJZfMlicx+NrH/ez3l2Pd3nmqQ59skfmsxqEktjw8kH74ocOAwvPKO/Rzo4PNC5edSi8OJ0=
  0
TEXT
  8
0
  6
CONTINUOUS
 10
0.000000
 20
-4.500000
 40
0.200000
  1
$PLWDWGplIjBulsGeHE007GYz9fwErE6ghWBOPdqFwT36VDS6ISfyBcgSGM9GFe3Fw55E574N7dy43xPIzVVu2YqpPjfWMLof0XtPRqy1asGpT38DhiTFr/y+1AApfUFubRbPpVTRNPX1punqjL0f/w9N8U2S2R1jWoq9Z+Rh0Wru0DdRY=
  0
TEXT
  8
0
  6
CONTINUOUS
 10
0.000000
 20
-4.750000
 40
0.200000
  1
$PLWDWGmItSkGq8vvv4k+GYsIU/1y3tmJqoKxUUyJ2Cu0VsRBtLUY7bszkG9So87mp1JLFxSSlPtSvSCgSmoZzTVzwQBDEdKVSjJ/FLVpqv1MPRWUlxjkf2BouyPSBNxZnneMbVGzoXoBHt0x6hLvOka2UND1j2fVuVJf9SuHvfq8BfT7U=
  0
TEXT
  8
0
  6
CONTINUOUS
 10
0.000000
 20
-5.000000
 40
0.200000
  1
$PLWDWGHm2IgcWyNMtGTz612lemewVhSNCoL5gkDWyDgPxNBBsTX/tn89i3qlWIviqZET1N5xNnTchtggErOe17LEBWQhGTgdwAX/+uVBByhY1SWa6DkAh4WRteXDKZRM8F6CnT9F3fra4JB3eDfNL2VqRZ4GFI+/gdXt+gIlyYkk80oI0=
  0
TEXT
  8
0
  6
CONTINUOUS
 10
0.000000
 20
-5.250000
 40
0.200000
  1
$PLWDWGWAXFqglEZuvIo37SfQdkFPB7W9kxjn2ZvNFUfUsADpk7cMMVqq8gmqj03ckoO8A2Aa4/5erHdUWPR/5eKLMDverBNPlEB+ic04QqMWKOw3GD/3QYQsi5cZM3hB4NYviDtOsMVBfoo8j8U39ghCeNvAIjMX5SiT4UUJgEo/sjLsY=
  0
TEXT
  8
0
  6
CONTINUOUS
 10
0.000000
 20
-5.500000
 40
0.200000
  1
$PLWDWGHjgVe1+FazvBH4APhgFquKhLgRPK5WaxwEAJMYSkS/XpJ3wMIpnTGOelNrisMfmcmIPxbox0w3y/J1zbZJMnvxtbpPLLfRKGmJbBq+DVi4KIOH3SkeP6QkeE1Ia/I98ZrB0UQabILagta6YnxR4WMBCFIEJFpAwmYQ0l7u9OwuA=
  0
TEXT
  8
0
  6
CONTINUOUS
 10
0.000000
 20
-5.750000
 40
0.200000
  1
$PLWDWGHQJfHb+9t+DtpZPxdbdBkBXLXtuq+/+KksEGeNxwkatAydFkH/wcVIMKfZfv0VjeARw3aMXDsysK9K16aV6ykruaFVtALBWFpuBN/uG1NESsQZIhlbYarazT99q7vkVACp+5v7Ote6Y1LPvKdK5FQAJ6ucZa6iSQdEr9KeJNjdM=
  0
TEXT
  8
0
  6
CONTINUOUS
 10
0.000000
 20
-6.000000
 40
0.200000
  1
$PLWDWGD9lcpZTCF8HByMrlR3+UnB40QBtzzyB6mVzkiefGqMDQSJHbV3wSWtueNpYD1967+ZaRgQxb6xGAtJVN0qUDCad7AQ9Blt7DPQ75mvchkRBInh9K6jcbCxW2ppfHAIm/2UHj0o+z4REu6nG3+7RrGS10Hats4fA7WyX9LG8G2s0=
  0
TEXT
  8
0
  6
CONTINUOUS
 10
0.000000
 20
-6.250000
 40
0.200000
  1
$PLWDWGEBSH7bQnzSB6YnlYbzEPCKSPqZKRFvx0auLGTuonOc7PWPfvxSfs0n7YspmeT9IXTMruOvk7H2ZRDIysxHJxnOGvATBj8AhECqCltn9hfjLT9H2+QzEkPhn3pQM6++RmcJ0c+L90vul5wN3RKF4+hCUa9arnXKy2Xy9Oi/qgIqs=
  0
TEXT
  8
0
  6
CONTINUOUS
 10
0.000000
 20
-6.500000
 40
0.200000
  1
$PLWDWG3xt1DjsvcbnDs2VqcHisk8Q0wZj7SzxFDa/mT04nUSDBMEbb9t7QDgiXOi1jGwDH80h98UXOsxAvZJRj71JSYk/unNPhIAmX9Ua3V5H0K/PdO8aBMlClJhe/4AEoqR/VWwnl90bd/Z74JxNXuB+CMz+xOp8C8jRA+lRSK2NZ/XA=
  0
TEXT
  8
0
  6
CONTINUOUS
 10
0.000000
 20
-6.750000
 40
0.200000
  1
$PLWDWGx+vrC11jLqkD08QSBYIj91+w1YIN5xanoGF95FHgbvoDM6Xg4fIDDK2K9RP+hVLC+CJ9Xqv8BwHOnID3iDDz/5+mPyR4C7CYc7OP7NgwVsdg8da06WhX52uHOWL5oS7Y7RJ2fno4g8ldfYSJGuGtjFsjl44ZAgncXlz15MAdfI8=
  0
TEXT
  8
0
  6
CONTINUOUS
 10
0.000000
 20
-7.000000
 40
0.200000
  1
$PLWDWGiZRhGpplSAncIoZwT0PNYmTQIVxLSF5HvXRXPqnGeUbACMISSUno/la5U4+cE5uR7PkFB8KD5kXkFFN8wxKdRhMzjXtmNLucSLxa3+aJRUoq08bjHn8VVfccTOWmNLCAL83kcyMojUif4T0j9GxCpFOR4JSKhCDd+IahiaB+NO0=
  0
TEXT
  8
0
  6
CONTINUOUS
 10
0.000000
 20
-7.250000
 40
0.200000
  1
$PLWDWGeKrHoaYZbTMP2LKsJzzM1CpluRkjDxq/pFcdpymbK7XWg3Yjt0e8k/vGckxdxJfBv+UU0+htfg1Cs3CV79zuJxot0tzafN4Uau8k3cjP0C19MHt3C1naRKcvKbScSWKTv2ODgz+MAumOKJEYzmnLS0gBjNfBWLgHAaVH9gJl8H4=
  0
TEXT
  8
0
  6
CONTINUOUS
 10
0.000000
 20
-7.500000
 40
0.200000
  1
$PLWDWG9iDpVF5uFUvHo8vigRy5yOL7nsGyamRZmKeJ3GqoCzs/Zw7hkK8bwKcZ+YabL7Lm+bOuME0v6SwI6Lra13i0usih3nxFC8+3ujS2iZesYY3D6Z2xmL3m9UL8vcQCqDOr85ddRIvtunYGavtauDRLVENhbU4P1rvCvsbVvQnZH6E=
  0
TEXT
  8
0
  6
CONTINUOUS
 10
0.000000
 20
-7.750000
 40
0.200000
  1
$PLWDWGyvB0UowbPdIfM76nqZwmWgAaH5JbxLh4cfy0GDGmO8dv7sox5EHGh2oabykmNgIu37XM2/QZmO+PCb5TQixCsy0Xgdywv3E8QTqSMTvc+N47jYGRTRiqRTDipjexkgfs/wGaWrdz5ZHeC7LVs77xVF6YNBYC3/7xu3F+UHbXQkA=
  0
TEXT
  8
0
  6
CONTINUOUS
 10
0.000000
 20
-8.000000
 40
0.200000
  1
$PLWDWGuOR4u6Ke7QyY0800+8ZCQOQJWzlfKrz4eNFm3obOGEh6ICo+X+txxBhK4JaNVXQ+eclGHcZ5LHal/95Mjbnr0SkrmkTUOnGFMlS2TzkRJd66MIEpaYQOSNkjiLKcChL6gUmTJ+04slGwTFNSSaoK4WHWszYEi7EocBmohY0M7bw=
  0
TEXT
  8
0
  6
CONTINUOUS
 10
0.000000
 20
-8.250000
 40
0.200000
  1
$PLWDWG36sQjCTWiOuWl94ei4gApujh2xI1CORB5Op2HGhnNGuW0e9uiw705V+A8/bC9tGzytVKxCAc1DhVE4aQc/M/4QGvwUQYJfSzB0Xo7hwVp6QERVwMI2v4t/kznGamzg27zUp0i2wCeHagEDyPSzzLd6ItCgAVX0xSCId7rh4C4Ws=
  0
TEXT
  8
0
  6
CONTINUOUS
 10
0.000000
 20
-8.500000
 40
0.200000
  1
$PLWDWGQPuWAq3VduHsUJiYLadwF7aP4mYLBHk3m/bhqoGNW+QKIvoFAH/2cvsdfFtF5cRE0u+uH6fSKo7HPRydqpRa/Yj3QDwZ7XHd/eq0feZtvZa4pMtSLNco53dovLQaxxutX5xZ/GxtOxJx+FqWSLSdA39ZV3TuBn2OUp7wHqlGhu0=
  0
TEXT
  8
0
  6
CONTINUOUS
 10
0.000000
 20
-8.750000
 40
0.200000
  1
$PLWDWGAlye7cOhOIxkxvGFxqMsxv21GmdlkX2G/ziz7cnLBcM5cDFrablKm9pbYErW8oW0Fr0VZVCC0Q3TI6GxO34Y2/EzoQqBim6N9jDJ6QiLeimVPQC+LvFjy6dmLvbyyDX1BmxczmWbNOmcSMIsD9JOeV9pnsC90+ECl5+rCAJ9I/0=
  0
TEXT
  8
0
  6
CONTINUOUS
 10
0.000000
 20
-9.000000
 40
0.200000
  1
$PLWDWGMuscvwK3g5iyOsDMtkgRs5Uw4ajOJxuwxpZc48mxbSHpkK/j/ZBy2Yd3hTpYPHkXLP6zN9xV5HoJG1ArsNLXTIlA8sR4RN4+TnlztF3aVsAmuDB+s8ZfB/daB3AjuyTBE1ezYQ5oACVvIgQSX2XWU4VEDzzaq9LvAfe2JH5FN00=
  0
TEXT
  8
0
  6
CONTINUOUS
 10
0.000000
 20
-9.250000
 40
0.200000
  1
$PLWDWGTQa5gMQ6MpIQYSdwLL+KgAs89dNltFJKXfVDXQsoJ5k0SpBMiP1owpsJJsdNvPJ1hSza1Voixlsv850RbptsNMOxx9J10bE3YJHu/kAWbwEOSl0Y0/gC272QdAzCVgrrcZ2LR8zuA564OKTmTR6Wu/6hgO9MqxQ3cQngrVTaTfI=
  0
TEXT
  8
0
  6
CONTINUOUS
 10
0.000000
 20
-9.500000
 40
0.200000
  1
$PLWDWGHBwG7Wlnmw6iDr4ukekO1yJiqecYdponfQL/xQTYxhCIxfhUF6MdkAUmM42t3yfpaNhNnvLEJr8VoKbDj3s1lokFbQvIopS84vphbrm+MFUqlv01VOwnynYvUizukmNu5/CGqh1HVvvjE2rbmoV+6obXB3X1jJUxgUiBb02/hjw=
  0
TEXT
  8
0
  6
CONTINUOUS
 10
0.000000
 20
-9.750000
 40
0.200000
  1
$PLWDWGbdwSyoMJrindEueY5Sa+4ZB9ev08xKQYXNMiBdMQKmhKamzAl113lYfPT/+LodGFMcNAFhw+1007wkWUkEmz1ic32Leq+6+IWpKFTufkUrE+DHcWkm6ClL0nFbWzI1YxktqRy2geoJ9dNkl8R/Tb6iMyaU2A5hN2ETs2mlrVIaQ=
  0
TEXT
  8
0
  6
CONTINUOUS
 10
0.000000
 20
-10.000000
 40
0.200000
  1
$PLWDWGfoAwSdtDRvKhnN2sxq6wkr5eg8vckdAskXWy1gaRP0DcoSubkrWyQtD4dXQwoj9A/3EL4W+okiwpmGD6hvr7PryyDyYvgli7sBHmUEZSCM+TQgNCyppeAimNnTRIvhHJOJHSDaI0nmVzSQ78n4EY312ZxRzk4G9I/ihFeqeZbKI=
  0
TEXT
  8
0
  6
CONTINUOUS
 10
0.000000
 20
-10.250000
 40
0.200000
  1
$PLWDWGicP1nXlspS9l4fX/tjZU4ATvj+MXAYzaDfo3dXU1AhfnQP/ck7VswVDRefPjoSFNxFz/CGrpJb1k78XjgbMmsHhexAEGyj+0dmNNo4ELHfjz5pzuyTqCYq+P/8erchR3CE94hxsWqKmlh+74H8ngabWUe/ta5AgaZ/y0+JVSSXg=
  0
TEXT
  8
0
  6
CONTINUOUS
 10
0.000000
 20
-10.500000
 40
0.200000
  1
$PLWDWGY1C4/umS3CBNDOejXcGJ3hQ3DQ2iEPLK68+x/+WOjeHfYtO0v2Nkm5P0UbeFWvHeky8/ZdVOabfBvP+8/A35vt00F47C5vtw7O2JXivtGMCp2a9Zov2rJtwMYkaG2VqGV3rThFXCceTaTk4vNNXkPfkUmcT9qky9f3rlJ6Ifgh0=
  0
TEXT
  8
0
  6
CONTINUOUS
 10
0.000000
 20
-10.750000
 40
0.200000
  1
$PLWDWG4THZaCTNDSmKkg3iH0SGXwzTRAL9G15yx+YQm3qH+otabcvJkO909QbsAkZCUuEp5KdmS75ZO6S0fSWeXYZZ1/O11fWG1p4GrB6FLmEF3NiVmGq6K/jmzG2ZngewtPTOVw7v8cTQYxm016nBTvEMqZEDP/dD2ycbOQodE9k8gXA=
  0
TEXT
  8
0
  6
CONTINUOUS
 10
0.000000
 20
-11.000000
 40
0.200000
  1
$PLWDWGuf3H6f+9QYgczpKVvWCciLdwG61MnL/WmeTT/G0bd4LXwt/onm6q5opLUiNyqwB1po8NGPXh0qf4f0D17ETaFQsYpLHa+Z8t4T2qALYkj11A0Gm6K7ovLEpyQTV2tUAH3Uvi2nYXyUfsMUr4Vr1CHwoA1GylP0uPbkkyVLSVzjo=
  0
TEXT
  8
0
  6
CONTINUOUS
 10
0.000000
 20
-11.250000
 40
0.200000
  1
$PLWDWGUPJu3Pdl8Ke+YCmjsvvpmmje+HhTztFA3+dG3RjoU8aYj/WIHZV0n4LfhboJp4I1AXeOBzo41Ugf0OhNYNuOJxIC7HS+BzE9y41YXHO6awip++9j/kHbjbsuoWyfgC8Wta+TJobGJJjJgS636eVnI+vZPcUkuiZ6/VwsT+l0XvI=
  0
TEXT
  8
0
  6
CONTINUOUS
 10
0.000000
 20
-11.500000
 40
0.200000
  1
$PLWDWGAL0vXzd5H+2UmPaSJmi1zrVh2ns7Wowap6MX41WTT+k6zmiXFjE5UFnOWSkIYCiSWK1t9T92bCvPKTIN2JeBMB1buYLZvvotho7tbPmDHS2kyIEA07NkveNt1R7JfZd4DeyN049MpgAiKXQTJANWAs9Ka4gt/guYxv9cKkzZ5ZU=
  0
TEXT
  8
0
  6
CONTINUOUS
 10
0.000000
 20
-11.750000
 40
0.200000
  1
$PLWDWGxRElPJfSivD9tozn/nDFQwwPlCqxwp1eKUhDlNWTWz/MymNv2VHR4ppUoTCQw9yXLlDUkaWZWsBs0g+rQx67be5YntAYpGAnJax6FaUDAD2IUcmzgXxiQT0khRTHXf05cPlhG9iwxh54Fp2i9pPa6mGt+J2OiDZiGf2LyUReSao=
  0
TEXT
  8
0
  6
CONTINUOUS
 10
0.000000
 20
-12.000000
 40
0.200000
  1
$PLWDWGl/Vjo5bpoXBzOGYaHPBCB7ayN0NJq/Or7rDuFwTbcPkVaN8GmXRtZUQZ3wwxg6ehHkvN8Q9ONrHj70ChuW8/QC5cwMoFcTqq3wSbL55pP0D08UtYyOrEjn2R3OcacQiR+MlgQ0DjPWbAySzA15U3hw5baIjA6AAiH6TKPP+gXfk=
  0
TEXT
  8
0
  6
CONTINUOUS
 10
0.000000
 20
-12.250000
 40
0.200000
  1
$PLWDWGRu5+piRUVkkSQBOiCG04bUhZFebfgfPiLXW2e/9hd4xrwh+ILle1x7HmGoCHfZDabvL5162VK5O7syEVka3/ni6CJdbCbT5g4Ym/JIstN2zBEk5VG5Id2TP06e39MLsc1POqDJAnOWTDInuEQKPj9oshU+etosXQ1yTDYIyocAQ=
  0
TEXT
  8
0
  6
CONTINUOUS
 10
0.000000
 20
-12.500000
 40
0.200000
  1
$PLWDWG1hQUxpQoW9xWTQRObAlD4Q2/Hah3EsWCPqKuQQx0L0oFVPJXV56ysPpXue4g0gGjoRFsb9gxN5Hhy2iMM4qRz+1aoiWl6yO3sgB0IpcrQXfr2GhHnvqdu8WXFvXicZwoI21zosEzcaVpw8/CSfjvF0xDhtmVj6hF2gabtLctZpY=
  0
TEXT
  8
0
  6
CONTINUOUS
 10
0.000000
 20
-12.750000
 40
0.200000
  1
$PLWDWG5jz35I9xaSpxSYzTNOmyLsryVG8YBhWiqk2R1tXZehVrMZLNTzQWlmSfoTo835wxgykwwWCWqjHnIdnaSxd/9pdo4Y2wazgv+n8hgwjiFdfejR83I1AAXrYJmw2vdXyceujoSKh/tcWMcQdtriRtxIr6JZGVkaNTACl6xDOzigI=
  0
TEXT
  8
0
  6
CONTINUOUS
 10
0.000000
 20
-13.000000
 40
0.200000
  1
$PLWDWGgmRJOu1n1joEfVCFxEYiv9TQfZmtrGjfMyaLNlqTNR4+5YSUtdikRtv6JhEKfNvZy+eJB4F9S3g63PmD0GEAzBzMtIyqr/LJEGrT8ByH6V6JblxFxxIA1Nods6Uh0O3O2h/OXZD0H+k8EK5latEI5USkL9juiwIzxpeZ+ZgGPqA=
  0
TEXT
  8
0
  6
CONTINUOUS
 10
0.000000
 20
-13.250000
 40
0.200000
  1
$PLWDWG4wdTpM65BqJ2sHCEsfG+Y0B0e8Ry+vqrXsYDG+YeiCrNtWkZ1RTwe5ybyylJotWablDXT5j9HVWHRy1qq3eD9M/1FoNoCxobGW71A4j2M36GjtOMIUnYT+0lAodicDcgKx7kh9s4P0KZuiz+f7SPCZR6p2zpF9BFkba+Kis+gz8=
  0
TEXT
  8
0
  6
CONTINUOUS
 10
0.000000
 20
-13.500000
 40
0.200000
  1
$PLWDWGVPOiLNXSTYM9H5epGw5P6mAWRDLA9xrsXvg+VubIOYRs6Fal3mI22lGW66hsbGMeh+fb5A6DlT45Me/rsDE98jVWb+xYfoNL1VlM5E5szCsVKPO84p9SeTHG+Rnhv/8JzVjtzneH0H1utmiNhu+NS1ktgSV1nmOjCl5B0NvhChc=
  0
TEXT
  8
0
  6
CONTINUOUS
 10
0.000000
 20
-13.750000
 40
0.200000
  1
$PLWDWGYlD5DfMs1zLVPWKhvYNR6afDGl7ftuxJvArKvtEVX2mP2/zeU33ebP9m/8gyMk1V2K1UOFDH1MtYfTNb4pW8WlXSoaSf7dm8MiIs8HLRDezxB40YUF368GLu5KntxSUdCOynQJvEFw88iC2zn/zNpzBY9GDyejWn10Fj924ia4Y=
  0
TEXT
  8
0
  6
CONTINUOUS
 10
0.000000
 20
-14.000000
 40
0.200000
  1
$PLWDWGD0v3L+5EhlbUiZANayYfEZjCm6SMyw/LpP7H2nzZObhDTEUT7wW/udLSX9nvOqEozrOmg7QrFmPlrsgtO9FwxXKq9j+x0LGRnobEEJCSYel8F42T3CYqbdsJq0P+ST9AlOGY+MYgb/5FvyLrQ2k/QIQiEHGqkKBZSrqywWpB3kU=
  0
TEXT
  8
0
  6
CONTINUOUS
 10
0.000000
 20
-14.250000
 40
0.200000
  1
$PLWDWG9+6vDUhSJNgJtlvdqMfk4xqS0A36fYJxysJa4RwusTV4w5ZrHFyChbpyIF9Sj8vdRGWaSw6GXqEmB1ADG1fzsalWGk2qqGoYKa/MBgl+0UU+jAbF1/aoEz8HSMe4q9fJ+HD0QlribA5Mwy19ZT3nix07hW2R+hKMkDdy8H548q8=
  0
TEXT
  8
0
  6
CONTINUOUS
 10
0.000000
 20
-14.500000
 40
0.200000
  1
$PLWDWGJfkh2Ohj1xIQkBDLr0/XmTUFByurlQMLEPJpU/LnLtL50z/eLA7fXNTmyBsrLvqk245P56uTaSZRGFt5sZvmANxLcUE5BnwmPxi2VeUrSKZmEuGBlqqBqpgdfNJR/pN6BrunHL49VuGsfHrWHSMJceejOn1dwkkAxE67jiq4tlY=
  0
TEXT
  8
0
  6
CONTINUOUS
 10
0.000000
 20
-14.750000
 40
0.200000
  1
$PLWDWG4/uaYOAKbO236aWXkqwKY7OPyRbcKYIEzflc7ltUOjxRdp5r0mJxfd+tQ58cyowtQ59RQBqNQkooQeK2SQtnXGWW+AJVYD9Xe05JsaoQ1JBcQcl1rT/VETZG2224V6ke0MY+5TY3vRqV4V6g1SpjEapjIJAmk/O3UnZ9D9ZMf0E=
  0
TEXT
  8
0
  6
CONTINUOUS
 10
0.000000
 20
-15.000000
 40
0.200000
  1
$PLWDWGxglSEK8h3wvPRVH1/vgBhaSd2WhQwqP9qfZrZG+xWiISBICoPGnnMkp/Hpz4AGkcEP65E7yFwQMG/HkgCgc+VqsWLh/nHkhcq2s42IpnsYlaP8+kFjOGI3xS5Ph7nD9In2y91DYWfqyqicF9Sdh/CmTtz5HmFYOWD0tpL6BX6tc=
  0
TEXT
  8
0
  6
CONTINUOUS
 10
0.000000
 20
-15.250000
 40
0.200000
  1
$PLWDWGSV5wXp4swb6NunfQZlFUDjOeMblhTZFLjq0EYtDyrst6MmMNPc97ma5XPBm42hlrIJTahSs6COX3tMuhK6ZuZe/Uuw1qAxwnzp2g/Rhajz+5c+BjO1QE/xdpvhf0iN0FlXMYuQ4UrGf2V/j7y8XAnvWCbcpv0lqiPcXWZL0CHTc=
  0
TEXT
  8
0
  6
CONTINUOUS
 10
0.000000
 20
-15.500000
 40
0.200000
  1
$PLWDWGyQPDYEEW/HHBlycpst8g89Uqx71Hm6U58L9FoNc41RsY88AmBuf1sn9m+36mBAX5oZCpTBvIovTZ+euqiCafg7QsV5Im/JbZguQhE/g24PEQWSwqgwiVgDXMsvJXZEmtNd4LIUW9IC2KTP53BmRjputuDjMDUMv+SwgY3F+Ym1k=
  0
TEXT
  8
0
  6
CONTINUOUS
 10
0.000000
 20
-15.750000
 40
0.200000
  1
$PLWDWGHLnG65DRlDcUiixwhK7HUR4f57iAZ/l6koLfU/BgBXyZvQTcXul6hyJd6AzB/L/e5Hykj3bYaTVe2pSQsaiP53IyQATteVsjAtsmBVLWi2549KRU1+lSc1of0Pe+XJaviGgw3SZ42C+R6i8glQZBieJ19fsjddEH473dgi/rz4E=
  0
TEXT
  8
0
  6
CONTINUOUS
 10
0.000000
 20
-16.000000
 40
0.200000
  1
$PLWDWG8uDHV8tFRJBNG/mUGXUzX6cuJPd6LA8WOvjslu/lSGdsriHE2jZ+zVg5WCo1NzO9QIINGzZD9GIbDddhTRPJdlzgEljs1nF1e5fq4e3083ItOjX7hg0QQlJnXE6Ik/uFyQcR2OFnYijNvgYZGJBM+rBmXrWV/MyY4Z7FHud2P0A=
  0
TEXT
  8
0
  6
CONTINUOUS
 10
0.000000
 20
-16.250000
 40
0.200000
  1
$PLWDWGdjEuEiIvWekoCyr3J40/QENwgVdiGxdYLQrxu4RDOMUly1KxyK+tzVwB9coMdJn5hKppIstTx4Z2PXWzOixRLAIWrBGEi+wUHlGxS8FpMqkhyU97go3uxrvItWUWmjowLvaOKTP26Bh/xZfKZdzuOXxeXlF7X5yGLeR3KvKpZJs=
  0
TEXT
  8
0
  6
CONTINUOUS
 10
0.000000
 20
-16.500000
 40
0.200000
  1
$PLWDWGMeZ6MTE8apHvi5A4t+PlyPzFGyiWAZajeZ9fb8V3m9E5oSbwO0jGiAwzr/CAWQS3mAJclzlOjn/Wo6ESdltOUeAMblO/AknFcVajjnvRkkjahdmUT57DaqoZT62Ga/QR5dpvq8IB6LPcjChGCCFMJIIt0D1T0+YDsO3DLJfYDtg=
  0
TEXT
  8
0
  6
CONTINUOUS
 10
0.000000
 20
-16.750000
 40
0.200000
  1
$PLWDWG8Bkv4GiGuN1MiwAk9ATQxeSmNqiysrUS8wrvjkRobxnvvhdYuOzaVCyq9qbUshyVKk/FIOuP/B+Dj7XQaYrPNg/KxOIYaUUeViyI2aXtlXMOQeKinCzjUHC+HoGzR6CGRjXOVhOFaMR5cHpjA6nQgkAfHoTjn+P6aNpADIWyO9c=
  0
TEXT
  8
0
  6
CONTINUOUS
 10
0.000000
 20
-17.000000
 40
0.200000
  1
$PLWDWGxuNydCcdJXzKWX+iqQKtpz24cFwJZeKgYsbuei0k9Sf1XBre0NpFoML62d7W1Z86HKd+ftpD3qyM+g3ngR6FR4ncql5XgEUCgcWd9QiSJCfjNk1LDCMT/ejg/LkTjkAkm1eqLqbZMjN9C8RCC1n3BtTiFUmeXtfdpUsiEvxPqc8=
  0
TEXT
  8
0
  6
CONTINUOUS
 10
0.000000
 20
-17.250000
 40
0.200000
  1
$PLWDWGXisYiLJhEDWwtjjVz+pkZaqt0JQzi5DUp2ri6hCCiLfeHnlC3bloN0MzkG9Ucj3Y7BrwCEdsKCTYy9KAdN26CRDhw8cmKsZiMrF5xOWEHcKj2lgaWK5ync++8FdA5YWDsaErrzdn/XiVgvkg+HwerdwBZHlV0gMu5RF2cB1GQqk=
  0
TEXT
  8
0
  6
CONTINUOUS
 10
0.000000
 20
-17.500000
 40
0.200000
  1
$PLWDWGzPYNSy5T+7xVKiJIMPdElx4w/j2zV4BUp17vEmRYcocOqK9oEwf+45Hnogaat6wxGDR5QOQ5n1dpW8aLzjP9vMVthf2zYndjxz+Kjjs5rLd/WaoP3CRT2o2Pd4C86nCkRxJv0xqdGxOMNUGhXNjn/A26H18l15UJkV61qztEG30=
  0
TEXT
  8
0
  6
CONTINUOUS
 10
0.000000
 20
-17.750000
 40
0.200000
  1
$PLWDWG9Toq3G9Dxm6rkzeqXZLi/S5Ps4Z6gyTgukHfwCYkEqxev42yJf/8KlXnG+9j6HBErbnJqulU5hgatmph2ZQd/Ccl2bgDwdOBpL731hNEhLnHHchIojYWQ+srMYZX2jOFxbbfpJjj9VCB5/3SsLwvvj09o8UFufQk08a0rgnzsNs=
  0
TEXT
  8
0
  6
CONTINUOUS
 10
0.000000
 20
-18.000000
 40
0.200000
  1
$PLWDWG3lTmH0+oQTW3fECTuYbWJ9uLypQihcOx7sji5E84SGFBsvE8ca6/sAAVsdmLb8Ld6VB0/lEJ8OChS5E5UEVZbacx1+uZly1ut/L4dL5qzQJWviej2DOvKLdTUL1FsXzEZ1aXrLvUbXKqBbYBsio8dfliDuElffLqGBMxlmctlNM=
  0
TEXT
  8
0
  6
CONTINUOUS
 10
0.000000
 20
-18.250000
 40
0.200000
  1
$PLWDWGqrwyFWqvBrKQpmkn0FcuoGKUJbg9Jlv/4PbuY3N6PkAd/opcdR/DaG0CSQwghVTKuXZ8hInvmLmzMrQ+dI6Dx0K4fsxwiVRD0n0FJn6oKTJ9k/ecCFDy6Xcf74LiYQbjNWCGHoxlY9xpg8AQojj0Q1pSAT9ItZ0N7nsv739o42A=
  0
TEXT
  8
0
  6
CONTINUOUS
 10
0.000000
 20
-18.500000
 40
0.200000
  1
$PLWDWG5v9PsdvY4NLP1g4yJxAOUu9v3yRjqHmVOVFPoYPkhVwjJdVSQlslToPSmChtMenSUb4hn4oOi1jSbhC2YlAsd4ZVuIjOKAv6gAsz6BW+6GZwTyXRsfJa039wXOCx2Sw9ocWY97MJ9gGUa6/EknrYXmJADl35ZDjwwh+JrjUElOw=
  0
TEXT
  8
0
  6
CONTINUOUS
 10
0.000000
 20
-18.750000
 40
0.200000
  1
$PLWDWG53Y7ytukxtw5Y5cg+haeI80+zzvSSDy41aKNr7Jo0MjMgu5SFfr6DNO6XXfGBaIZPjNbsFaghOwmMZLlEBhwWfqxoJO4dEDHMpJlEJyzOv/J38vK/0G5LKHd4KBzqBmh+lPdHSiyXNhMEefLbPESboOkAupN2JiesRKtGFbaBAQ=
  0
TEXT
  8
0
  6
CONTINUOUS
 10
0.000000
 20
-19.000000
 40
0.200000
  1
$PLWDWGKSVQ57Nqb+CL4uWlW7UJ1v2AcoYCW8Gz9kNoyj4+Uj9quSQPnDDKrcyF4hiVT6zTwxlgeom/6RikDBHwXZpZnx4z5CKlnsYNlDmvKMDmnDPZL85WLnXbvKYjkyUN4GmPvHbWVfYKyq3xdsAwwWh6NHVpj95LgDMKsgNrW8SpIBM=
  0
TEXT
  8
0
  6
CONTINUOUS
 10
0.000000
 20
-19.250000
 40
0.200000
  1
$PLWDWGONj+SYW+fsST4cUx07SJjCEEI1X0u8x8QKbgCLlAfpBepxMQs+hRXcbaYOu/6rGelecL/91ivdPqTsOgxplx18y7g+eJdG8JFsmjhSke9RqsynRbMXfY4UJJLqF+EpK7yvQKYWMyPw0QR36WKM0OYQxh2YY/84QffoiCnQIwY7U=
  0
TEXT
  8
0
  6
CONTINUOUS
 10
0.000000
 20
-19.500000
 40
0.200000
  1
$PLWDWGboVGNCxo5h4YW36VVZGbZSzE+IgyZaHcUbmR4TT7vABlAKnZrBe1B9M9AB0mMWUJIxws3pGX2AW1bW+O84/ukS92JWQRqI6/rCJfOKfmcIboBbaCm1jQVfuLmZa3j8OtmlnM5Oef/rbe6F7zspZ/y1MyEPXcjVYWc39Qk7nm80Q=
  0
TEXT
  8
0
  6
CONTINUOUS
 10
0.000000
 20
-19.750000
 40
0.200000
  1
$PLWDWGMPS7CybK+af6TimeIvsDJvsffZa/CbVHEW8icagxAGcQtdqjmrhkN9cD8vdF+mvt4tJ6kmkoA5N3HhGHkWYHeBf4WyTTeJ0eADshkqvu9N+n893laVStOtzFtVSwcDdag6YfS8HqLq0wUoRdHKR4COl7bl5XrqIWpHRprC4z8u4=
  0
TEXT
  8
0
  6
CONTINUOUS
 10
0.000000
 20
-20.000000
 40
0.200000
  1
$PLWDWGh1x0v/+CW8r5LUBVrfnzX90z+i1z99SAScqvCqnnMSmX+zdxtvHBI9LOIxEzb3qvgzdKgEba8U3u+eDWZv9ZqSW7D2HhXEA5Iwuh/LojyJm/ZOzPSTpOi+U+bCYjJ9iIjcfzemO0xdlMlxiZCy/GiWwt5LSJvlsa/v2qRirTsV4=
  0
TEXT
  8
0
  6
CONTINUOUS
 10
0.000000
 20
-20.250000
 40
0.200000
  1
$PLWDWGHwg/oXduo/6E6H/69BVNbX/Uq11jI2+5IPbCCVovLrQK2HiIehAdRDu3iD6M+zNAj1V2SE1OhufdqMOWygs0QNACs8dC+5A79iDyRNXhZqlxI5fmcCE+l4QD3cH0wyDE6tpdOd5bOBf/FxbEhNJS+HDYK5fy9ju4ug14BGiz4D8=
  0
TEXT
  8
0
  6
CONTINUOUS
 10
0.000000
 20
-20.500000
 40
0.200000
  1
$PLWDWGl3I9rlIQExqrAyw9bYBMKaMHeztM8VjpUeJonvpFaD+Vlw9nBbPbhkZ2mf2wnNSGc2YpVCdfcVJIOA1gEt/TiFXau53tIIPoamfpFQgTqLi2yGhOBZdUNMcbnO6KxGirl8MhuXbCao6jZloenDfJrFNMFNppHR+Imr0Q9FGzpqg=
  0
TEXT
  8
0
  6
CONTINUOUS
 10
0.000000
 20
-20.750000
 40
0.200000
  1
$PLWDWGWpISm7VDfzfoBr26zg9gPHBl3U37WyrEdJ3MgW5ukCmcdx8Z4o5gvWDF7hJuKezYr9xtxQaqZoGqhIV2am+3B7/TMmR6IzqgzHzD8rAjdUAxmSQ+4m6hUnUSzYB5gXQJUdV7FLUwiQcNC7NaGlX+iqKshRbrBRxv0JHNCvb0icU=
  0
TEXT
  8
0
  6
CONTINUOUS
 10
0.000000
 20
-21.000000
 40
0.200000
  1
$PLWDWGrej1DqbgDXOXYGVBImSPmeaO2hG3bO3nJGcFncoeYN+HSkLVO6BLvk792hcd0sxwjBsSPN091YvxpyNhhae5Bt/lLBZqbA6N6vP8/njxzfGDogajliJdDBjgIorzXnv9iw3FQOy3Le38GMfyv8EbJDt+A2RWeRmwWvq8LXpgK/s=
  0
TEXT
  8
0
  6
CONTINUOUS
 10
0.000000
 20
-21.250000
 40
0.200000
  1
$PLWDWGEa2UOcm6fTA08qqQo76LIZSoc7WJKGUQ2TeM2E5FMjOAReaI2+I9Cfy0bpWlB83/JGK8Tv5gQltWVVrTB++WYEDIo2eXn7r0fbi5xWGuRuQEcsz51HYsRUcQ9F9A3+IoQrMXiV7VW0JomOjq8ftdfNxwvl4RNhsCOWaEc61+HG4=
  0
TEXT
  8
0
  6
CONTINUOUS
 10
0.000000
 20
-21.500000
 40
0.200000
  1
$PLWDWGqWqUCe+Eo23UKmvssTcE7u8OfT/Tmt1Qfwe7EqJflFBBqM35Ni7qQiwD6CN8P4aKTu28vKuvC47kLWCABtT81Rf6fy0oOs7mXpyCxLZqD446Wh3wCgd0kfre6FTezkTN11MenmCcONuYPciGJj/LVfWWM8ACEHwiZisDQpc2kxM=
  0
TEXT
  8
0
  6
CONTINUOUS
 10
0.000000
 20
-21.750000
 40
0.200000
  1
$PLWDWGjEnS7dk1P4e16+4L1dPh1rkTDCQOtrdteefDdXUmtAksbIqwyUSK/IkrBx+7VdtdmkvrI+EKnldW+E4quwMarODiS9k3w3+gK/LvEhlG34VmrjEYVtA8brWo9IQYkphM8NSAoAxVgLf45mJVKbBD3XWy7n6qhu0BpGIi3vLFKM0=
  0
TEXT
  8
0
  6
CONTINUOUS
 10
0.000000
 20
-22.000000
 40
0.200000
  1
$PLWDWGdJmrXb+3RDYYZKD7D3xzOilUekQfqSppadOsUegG3GrHfiyCmjcU58Cia+TdN5dQa5qwoHbfhC+xlAPFhWeLL3NgxSTGCeBX2OnqgegD9HD+JP6Fqvsf21Nw4AI/zgJrFT0JHlpoGEPd+Vd88JZ3fBL8RLghyBUiSGLtU5PJ36s=
  0
TEXT
  8
0
  6
CONTINUOUS
 10
0.000000
 20
-22.250000
 40
0.200000
  1
$PLWDWGXIvN7TaDIS/ydoqfnZ9CM6kowu4+KV6qLmSbKL6YtF5MSfM18SpnbrBvGGSOMlWNJBdgFt7qDrhzCIxrjX6VTHZz43vqyeisEW5xgS/PNkAMN6lXJRDyiiOZCvQgyzZAvXqBKWSNxezpCkKZWxU8sK4b9WLaox5DIi01leUxD5c=
  0
TEXT
  8
0
  6
CONTINUOUS
 10
0.000000
 20
-22.500000
 40
0.200000
  1
$PLWDWG9cHUNmlQdHHRgKxQP+oCUQSD68F+0p00Z3ygDmEuXurx4cLCctpxCR1+0iAw+B/FVpaftJ1kaNR9js8t1VMcT6XXIideRqPu+dxhg26WE7paKj87QYLBO75PLSuaNE1ZWvGpa5Z+eH4/qdmTnzqZB4ZDt/bgR8S/KJJz6b3lbXM=
  0
TEXT
  8
0
  6
CONTINUOUS
 10
0.000000
 20
-22.750000
 40
0.200000
  1
$PLWDWGH1bMBAcR1BgcdsxXR4vZ+etOGOgMOzz9+FLg4Tkz90BR+oMoVCca7Fi6rSiSlpbVelR7eMEmMvXABgXDQ47NjvN5j6T/Ri8NUhv9eDJ7f/5iplCAL6WNqzO1W3zFlMOl55ZUk8DaBD+DBhSUk/9Pvui2lvGgFFuDX1k0Hvm1kjY=
  0
TEXT
  8
0
  6
CONTINUOUS
 10
0.000000
 20
-23.000000
 40
0.200000
  1
$PLWDWGrW5YgdvxPg2+Btr2pzpoQVyIeI+4A0dogWOBTkhyqWr/Heq6QKar61EYDWD3r3jT6T7MSDSEI7/lFWDQhxsaOBdKijzitFWawOHvOj+6qGKpUC9dZ/5++CrFxjr6SrqYG/4QWMuemDSgOc4MmLOmcYn/z3Vnr6jMc+e8LHL5Doc=
  0
TEXT
  8
0
  6
CONTINUOUS
 10
0.000000
 20
-23.250000
 40
0.200000
  1
$PLWDWG7TowcZbotHmzroutaHaR/XqzQMy7SrbtR/0jxDMEwDr0krvXkQJJAYm9kYsh/2MwLsHbFyBh6zAKnyH6xpaw9Q26MxB2tsnPXEbNKTnpaCud6YeBFsOELUtDwxrDNz6PnpYBHTcKYgX5Q1/iRSZCVJ2srSzPuhG6C9adplhykQk=
  0
TEXT
  8
0
  6
CONTINUOUS
 10
0.000000
 20
-23.500000
 40
0.200000
  1
$PLWDWGP0/qSg/wlmo2FsAToP3qFHcPpLKCXuVypBapnGYSjKMdVTnF/AzxYyjgTdwdm9qWkf0efoL+yHw8Eq28EU+5D8EcSAGfFxAoXZvUUliCXLHQvyjc8hB4cFHLaE8iZe/QZK2WGfFfFy0wcs2SJDm3Hbo0BpL5Xjw/lY+bjzpUc04=
  0
TEXT
  8
0
  6
CONTINUOUS
 10
0.000000
 20
-23.750000
 40
0.200000
  1
$PLWDWGUoUvSlb8YYsI8XTkdAnKHYqGvw4lmqIxYv/bJh2MeTIupvXIBrdfXz42n9V9GJrj6Egd0X9orLx+r97YAj2Ex/Z3Mw2raWGkNkrdJaRICCEYp5s5ul6f4iwZ5ADLoRa4584/me1SuwKDqHgzajmtBmb4OkrAchLqWS8cwCyA3QI=
  0
TEXT
  8
0
  6
CONTINUOUS
 10
0.000000
 20
-24.000000
 40
0.200000
  1
$PLWDWGsdCO2vUbsx/6M194ST8loQkI9MS5wk1NPNjCxjSC8ibS0awT4GtVmqx0c10XS5LEkrnNU6Wns6IvyGwAwCGwLD+WBqcYrKI6SBKim0f9/Z+7Dwjf8k2ltWu0AmW6vD5ZH4+dVh94TmtYsfab8/CWF9RwB48BLM1YGjaC1WNuYn0=
  0
TEXT
  8
0
  6
CONTINUOUS
 10
0.000000
 20
-24.250000
 40
0.200000
  1
$PLWDWGYhz2JfQ2uxuM+PAMRBdVEnACsz2vAm4iYzpGeKmF+Owcb2LcGfbdue6Oo/7iwVDUeDs2Das+xmIU4RhqPVsgoFnSd+CTuhKsrGXGW3+MseWATbICsaFAoVWoIEIYv/hb4uFAdqYzLqJkkfhZ51soQFbHFrnW3nO7/FvCMkFLKEA=
  0
TEXT
  8
0
  6
CONTINUOUS
 10
0.000000
 20
-24.500000
 40
0.200000
  1
$PLWDWGR6c0UHexcOHlj40dPjChqOGiUVSMsjxUQcIQgJsQ6lYFJpfhGPA01UBojkhhudWitBEDZCCMY+Qkh1CFuKwJcruYFGP7sO0Z5qlANJBA7X9QKpcCI49NzSaXDwKVyuVnkHOlNsSiMo7J/Jx2hlbceOfDHs3zJdgzHUY0WEplq/w=
  0
TEXT
  8
0
  6
CONTINUOUS
 10
0.000000
 20
-24.750000
 40
0.200000
  1
$PLWDWGxXJ/Eq6FqpP6/SUC7kwIOPIYeIs1+UGBZ6SDxkXAJCuHVtodqRwm5gGxaurF8S/8PkIKQSMO1xOpmSMiW0S4xEsAkqhDX+9VuhmSMjH29aHuuGPaLbRYOxB5wtWyPRtt56f6iyP/Nl7odRuXY0bq3fZk72E+A37QzGcAIEeltlM=
  0
TEXT
  8
0
  6
CONTINUOUS
 10
0.000000
 20
-25.000000
 40
0.200000
  1
$PLWDWGIjNu9QYnOjlH+Q6vQzDUauTCuLz2dY/vH6BjgcgvYApacXfh0U4xGS+RPnmIXRDtvXVT5vlkvHQYsIw97mWPsxH0KpCe1yV6OEbVrg95XGWMs8AxdVobtX3yCh/RUPBd62z9qPIHKkb7KSIiqg0zaeoRMly4PtqWtFffS5ynjkc=
  0
TEXT
  8
0
  6
CONTINUOUS
 10
0.000000
 20
-25.250000
 40
0.200000
  1
$PLWDWG2490eJulO6XGIVHyBpUoYJ+w/+fN9cyusd5Y3K03isHcvEdYQjjBibXliN3X7wURVkhfb4vRrQr6hbMEY2SpfqIT3/06HakhUU9Vp9MN36C5SGCfDG0ywZJpvgziQ6fIYOabiLGnkdxTDEa0lUiOTbCHFWtsoth8MiKTeG4cYNQ=
  0
TEXT
  8
0
  6
CONTINUOUS
 10
0.000000
 20
-25.500000
 40
0.200000
  1
$PLWDWGwqLdq39RUhWYsLf/NxKCH8/XXfM1sgIv3ocjkKKw52AFCGN95kqO8pqHlfKPlQBRg3Bv66R7wVR4WVw8yVLTYcYowjUz4Dmn2UABiEprHBPVSmPMDNU1N0oXxWxfmNE+EldHemqXIoDSCtiB7qO06hWc9nY+/D2m3Wbn1bkPVz4=
  0
TEXT
  8
0
  6
CONTINUOUS
 10
0.000000
 20
-25.750000
 40
0.200000
  1
$PLWDWGa6/BMrFiiXjcmEIvHBvDSWwzO4+hj7//r93FGZ6qv9ZGHnSSCpLF9isXCAKYeMUWYfv1GJP8EYakpisyuRWymRuvxFKjGCF9oP+OxUptB++XRjKN1mk0JzDmokWS3F74hzkIe+nMhOmPEqXXJY6do/VxCyxxpHRjF0az/wIA1ZA=
  0
TEXT
  8
0
  6
CONTINUOUS
 10
0.000000
 20
-26.000000
 40
0.200000
  1
$PLWDWGv9rvGeKPNrC376/H3QHNkGI5cpuElFDOY65ZDxmU3aTP3raShWIE/YXjAnFqgqtvP+AQLTEDPgj3ULZ+GlbIsNBSe5Li6WvXoytWiPaCapsVk48WGW+TfKrxrAN+fL4HS5XkAxNn2V6nnUYaBmf/3t9xxNIiAQpk60doOa+wDQU=
  0
TEXT
  8
0
  6
CONTINUOUS
 10
0.000000
 20
-26.250000
 40
0.200000
  1
$PLWDWGjjYF7KTivVMkoeHa36x9/sVsNzX1fvDAJkitdJnhIjsOQH+A/+TSh4/Wsy/4+apr/g5kbHOw46rp48xeWuqrCYTmLP7+tXXySvw7ocZ7N4WoaxLy1A/0CwVw8hzQbJzauG45mDPMdzvNpsI3BoVeCN5nx7bnQfLx/BhZEra9Gx0=
  0
TEXT
  8
0
  6
CONTINUOUS
 10
0.000000
 20
-26.500000
 40
0.200000
  1
$PLWDWGeMRs6//+JgH5zH+vDsEwQJOpq2rX2tlxw8HaVL7NMEAk/eeA5UNRVRFeKXJrKz2AIOawdrgBPsQs/d29qIc4Zsa8kOv4GKaB3kvSEe2I8J7l67vbihTQdoxVIWAWHuq8XtzIf3NGRkDjfoMQ90AhILgiD7PVJHLgJStQyauLrW8=
  0
TEXT
  8
0
  6
CONTINUOUS
 10
0.000000
 20
-26.750000
 40
0.200000
  1
$PLWDWGbCn+1nh/RDdBipwA0j/7LojMEa7afWiXqVFECMBwrudMEFyTbRzqFYfNArT2rhjN2UUskvRLTP+iMQDijnkCvISHb3JRR6ljt1RAlfbow8nt8o2MI5fik6lFSRkeyFU2sVkklli5QTVbvLQC0mEG3RjPbkwzk6/YsVlMtL2MxF0=
  0
TEXT
  8
0
  6
CONTINUOUS
 10
0.000000
 20
-27.000000
 40
0.200000
  1
$PLWDWGIyAIIfmFpkLqMgLTl5NCZ1dIrp/Yz/mwOxzcoc5o0//wTl2J/NUSUu+8xHe/YfHyE/q4D8j63bl0g4uNeNXCwuc2EK4C+OjYXHwBWCNkCnJbgHDB8bQfnBWJC4n/AVnNxIlBmuzRAJbbcVCl79uciOXUGYNqwgscST3QqrLIWUs=
  0
TEXT
  8
0
  6
CONTINUOUS
 10
0.000000
 20
-27.250000
 40
0.200000
  1
$PLWDWGnW8ZsZ1Wndzz+z+zcd0K3McNValtVXFCyDWF9WKnzh3kAjVN3PbHvWkaW+x8cM/eo4Q1dEaTnSBAwlRswKWV8S9h8iiD0G6kjpJ+Fv8+zXzmb3K+Q4sBfri/MjDOiLsYhJpK0o3kQlZt9HAn9RNQBCB/oPKRltYoC34a6zxb3V8=
  0
TEXT
  8
0
  6
CONTINUOUS
 10
0.000000
 20
-27.500000
 40
0.200000
  1
$PLWDWGgtleMco6dzAMtpOY3zNkUyiLmSvBEYmSSUh/m099jpT0CJK+jvdIvCoHfaB2USm5kuC6lD3kuBw5v1eNCR3lrjJj1sjxDk4F15ECok/uJD9OGjqGVw00cJE3dEBK16YxGNSrPVnISluEXwFFGO7bh/ukyx9K7A0a+Qw4anN+afY=
  0
TEXT
  8
0
  6
CONTINUOUS
 10
0.000000
 20
-27.750000
 40
0.200000
  1
$PLWDWGuJ0qPAto8dGkDisgFJAZqM3+Av4+Q84T69WdfqAHABGlGKHPCVHohK9JORzYrKdwql2wblN6QKW3FO65CPKrPzUNiSK6pRO8psegQZMNpPjdCzBSFqVofkSPlAt9N/z1zWN1ntTM8HXkkHbwO4PWEdYv04L5t30+nfO5N3zLgQ4=
  0
TEXT
  8
0
  6
CONTINUOUS
 10
0.000000
 20
-28.000000
 40
0.200000
  1
$PLWDWGnKn0NZQo6CHcibAekrBqR1kB5WZUAueaQl4YMGiZ/KwacPZss7Zi3+9Zj6lyXu950KoECbKKc9qIez9vsUaI9XucgQuOtACx5rSQhYW1z2nF4pKt5Zclm8wLaarDA5ucUiieUigyU6D4L27lo9OVdnVpeVLi+nzOY9nhNYsV7fY=
  0
TEXT
  8
0
  6
CONTINUOUS
 10
0.000000
 20
-28.250000
 40
0.200000
  1
$PLWDWGEUOl5E01O3ac08xXwteSDUQA4KaZ7NdsGoClG/ZUJiYsBy9Mk5JNt1qPWSEILgvYZZVfrNJ9kSPt9PLK6JpEE/zX5ZdM9X8lzFvIiLAGc35e5sfyu5X+5LquJK7xjl3D0/rg82neWaeQBaFQvtxNDpN+m4r4YtbH2y8ZwIl2Zy0=
  0
TEXT
  8
0
  6
CONTINUOUS
 10
0.000000
 20
-28.500000
 40
0.200000
  1
$PLWDWG2WJ7TNkiHeeCreFvCMqFk6dezcfAitH2EHkRzzqtShO3WHggrMM+yxIfgG6jsjZAp2jwgKQ9flL3KfEi9VU2QFAGISZQ60JJjQhmzqCtAfGOI0FysZs2yTA2NpwnbxeM3FRz1kA0Am0cLPB5s3HxveUh2L1H5BZuNgyJ8zqUcDY=
  0
TEXT
  8
0
  6
CONTINUOUS
 10
0.000000
 20
-28.750000
 40
0.200000
  1
$PLWDWGiWt0g0pdbG7Cj05/jd2v6qLCfG+sCAsjThBlijop0BvhaymlggA2gUjd8eLXFLuXcdn+LE9u5+1fe27pXphULHo69Z8Sx7Qs16/gKT54MsKw2prREgIcMVtjd2UXMUgy8bN7Wh1uwiKu7+HYup0mPRwIHvPVOsh8iB7hFKmJ/lQ=
  0
TEXT
  8
0
  6
CONTINUOUS
 10
0.000000
 20
-29.000000
 40
0.200000
  1
$PLWDWGZgP3GiVcvuBscF63Znbo3i2mb2aHSHPAJF2qUeOn2FQkR9QMb7iYm4sS6Uzwzmsr+5zlaH+ymNECi+OPysA7eSpU83F21V3Eh37gzmM4QkMwodYnICIw/p083lJCzNSQ7ubIiiy5wiTF9utYu5LbqMngDGzq0dwyGyzrfsWs4ws=
  0
TEXT
  8
0
  6
CONTINUOUS
 10
0.000000
 20
-29.250000
 40
0.200000
  1
$PLWDWGU7MkAyprqOou0oce2cB/u0kusOmsJ1p3lFX/VApfvVw79IUFkz3lSDNkPKqYv1XN5Q061so4lA0n2l/TlItiDLZLDToeUcSbsEgE8dTisU9r255REgtNp4THfBMGELptvhZTICHgTgttKqnWnDZkF7ZOyxY0oQ6cPh/cH/IIZRw=
  0
TEXT
  8
0
  6
CONTINUOUS
 10
0.000000
 20
-29.500000
 40
0.200000
  1
$PLWDWGq62iD9K/hpUONYXupBcKOunp9GAMjN9ZgFfLymzs9DvdiKX4umqy5ZUwOINUMhII2kSwqYUX+H5xOM+lun6ceILZUQIJU/VrsEnKPhhlq+msrrXlJOvhu+caI2OzNJ/x+XbwYp+R6FqDEl/sSRigfu8vSwxj8ve7wCAOy7kJupE=
  0
TEXT
  8
0
  6
CONTINUOUS
 10
0.000000
 20
-29.750000
 40
0.200000
  1
$PLWDWG+xS9tjlngeW4AUMM8P69UygxAUALPfCY3BRJaTt/mKDYJ87lmTxv2MshKG687yxB4+edjWngekRH8gFBXLWJx2EPIu2q3Bh3bztTCGLuOulFrnQOeUk3vuW7XL2l2d3GZxUrFJcCj5G89soSfjZXO0aXLM3/vhOavMsTtGvBFho=
  0
TEXT
  8
0
  6
CONTINUOUS
 10
0.000000
 20
-30.000000
 40
0.200000
  1
$PLWDWGg3xCAQdr8eqqYwoi8E4sv7TJ3eiD+zl+Y921zIKAr9zjnJtNGIeEbGXWKDCQc6GpaXuFoGjp2U0fCB4A7N/wWDiEA+G2fA1p6NV+GZFs7c5zAeUfBEx6Hctq0bd66aJBEw73YJbsWgjrumt23HKvKwkOVVF0aUCjfkFejm7Bhac=
  0
TEXT
  8
0
  6
CONTINUOUS
 10
0.000000
 20
-30.250000
 40
0.200000
  1
$PLWDWGh92We3v1D6Nq3ZWSjh4ZyKEvNI3WnD9hiar4PIfAkfVe+DqMu0lxnKAt+ptF7jOCz+fkaRLluSZC5sR2suCMcS+tUWlo2aGr+jwNVIRuGSqOLMkQY4O9NJP/XfC24E0U6rE7FebiKz2rp3dRa+pN1i3OMv7BhMzj8iiEBoN6MQA=
  0
TEXT
  8
0
  6
CONTINUOUS
 10
0.000000
 20
-30.500000
 40
0.200000
  1
$PLWDWGB0bF7iuJ62hAz9X0B42Y+BdOC8Ntplu6NkmjgzIo+fvwbXkOv6RnteyXWMZ0gRYrzcfXycGr0IeIFyvtQfBOAw8JxuAQ6aHrTHEGjpgBNUCqVt0U7gn1kHeja9C03jRAAuSb2gzROLGyT1Elwu0XyhlqnDadG3iNGUzWg2ijuY0=
  0
TEXT
  8
0
  6
CONTINUOUS
 10
0.000000
 20
-30.750000
 40
0.200000
  1
$PLWDWGPEck2gmfrur1qwYZ6LPEXdu43V7iJ8whtg/FhE5L2yaIfRDy7Nu+q2YAaC8FvnuEaXIkAduyHhP0emqv56yur5IV6JinH1IaehDTMZzaiG58YcAs2AY6tEw86wKcZ4KgO8fiFI+VrcFE3q931xl+5CCmFGi85Hsz4u7qpxAz9/s=
  0
TEXT
  8
0
  6
CONTINUOUS
 10
0.000000
 20
-31.000000
 40
0.200000
  1
$PLWDWGFvHQ/DODB+ZGOggBD6eWTk5e+ECkvW/00YH0nOp/9TEe9hpuueBgrRfrCHhr1wGBM9/XK2IeiSxjGayhjVUVZGFqS64lq4DzfAoN211x2sb+tq74aPUqKfiDMmN5etewMiRw5lhsySH99kcEo+dVnyL5QLO7ok0PyIfBsHdz7E0=
  0
TEXT
  8
0
  6
CONTINUOUS
 10
0.000000
 20
-31.250000
 40
0.200000
  1
$PLWDWGnJ68cvS95DIra+0xgBgf5+Lwo0gxpxFLkZk3sRqpWxjME48Wu6eDE2m31QSJyTcNtg7MNxlW+IUrMO8FUv1qmc5L0FB9J5p1Gkr25iaBr6eGjloBuTEB9PlQgJl3y45oPkAUNAG9hwr6FGfElUR/bx1FLhrMD3FaPGoMR74+7pA=
  0
TEXT
  8
0
  6
CONTINUOUS
 10
0.000000
 20
-31.500000
 40
0.200000
  1
$PLWDWGaK2E1PyHD3/oMULi5P+pmTsve5Av1P9yc0o/o+jGKC5H+H9CE7XE0LRGCzmOMjhfxAyPxCOB/59obBM67iTQybhWEH7U987FcQdjNOyNgsj3jlQN4fqXW6PWMxBKlciiRzXNhdIssYgQIHC0Oo5Lq4fr2JcNzSrUZ0ON+UIdZYk=
  0
TEXT
  8
0
  6
CONTINUOUS
 10
0.000000
 20
-31.750000
 40
0.200000
  1
$PLWDWGCkbXLqRfwgIu6YcDa0uDTvfPQPYGVRliB1d1ndXxi/QGtW75XZ47eWvkPdJN/bmweRaeRJ0Rm2hc2klqWmBFd795+9nc4dgZKzZFw7iQmoLzYTXW+0TsN4ztvSMobhIONDIb1f9w1lX/rcbsRhU1MjxtI8fhogo25LcPUKjec/A=
  0
TEXT
  8
0
  6
CONTINUOUS
 10
0.000000
 20
-32.000000
 40
0.200000
  1
$PLWDWG6qNUtlajkgemMYnSfQVD+SAsn3EGknGceMdFWwvpMXz0Wg7JaKT0EFzoVd4ZBO8GD266UtrBFNv6mYjPmsdVR3tL44OduiwLpcdbWsViESD5pH/juJpgDHMyZZdMKQJKVWSQKpZ4sadH1DFwa6r58+kf5Wnov8ron91iAs3rkh0=
  0
TEXT
  8
0
  6
CONTINUOUS
 10
0.000000
 20
-32.250000
 40
0.200000
  1
$PLWDWGholQmdLDLkrOSKqgoxXIgeV2pERChBlp9xDQuX3rC3t0VWprouZ+FYtWWE8yeQ/gb8DkfWJ0I0cNv5n8D/nc32g+lHqJXm5shWLzmTjqERl8SichY0IdD65TW4GaKKqOzhw5Wmh+/Nn7pbkiZVVNRlqK4aFfhUU8X0U9RdnYzcA=
  0
TEXT
  8
0
  6
CONTINUOUS
 10
0.000000
 20
-32.500000
 40
0.200000
  1
$PLWDWG7sY3/w4S1g1oQXbW4c0ioCpTeYjjufkNUPmJqTMhTkcOo3xPKGeCJwaYh2t4oln2v+fbN+0QfpDPGzV+WD2vyHDxIM9w29ngTWqUxlRca59Y+ZK/BHGMbKXkRtYupGhIj9cjoSIPYILyCM82kI01QGdxqPY461KBiZa4ZfKtNUA=
  0
TEXT
  8
0
  6
CONTINUOUS
 10
0.000000
 20
-32.750000
 40
0.200000
  1
$PLWDWGIqEfLsP9hxiieH6HXlRKvQ7j9FayIYMhNtF6v9MrJ4dqVe013rGvo4dinAExHrZGLQYqh6P16LGk6HjWNHbbBmGaIVfKv53tWPNFoqo2SnMqHKQrb+YQk23JvsLYzSDqMZt55BlQIVM1fZ6x3XaNDNuWe9RAJdPm7D3o2iIO2YA=
  0
TEXT
  8
0
  6
CONTINUOUS
 10
0.000000
 20
-33.000000
 40
0.200000
  1
$PLWDWGeV2/sO7fYzpw/1DCm7R/t3NWn42OKHrOjcsNJPXcqbIS6OAraMtKmT/ZDLRRzCLgYskzqeClUcBTeVf0+MNU8l2q0cBeG0r6iuCCY2LVSrpeZzcdiVenyALZmCOvTHOzT5WxOwBK7C9XiF7c+gZVHoKii7FvJxTHCBhIJ2EqYak=
  0
TEXT
  8
0
  6
CONTINUOUS
 10
0.000000
 20
-33.250000
 40
0.200000
  1
$PLWDWGU8/WzKU3oIFEvWfXxQJKEYt3dLqJPsWIjz3UIHuCA9aw1xmWAOkBjOs/Bp5W/69b+PCCqtMwSEDQzldCMKBOLWT/IxwxD/4qtG/36jZJEkXWdhB9tijVEcUJcUNV2GXqFpMl7SF/WymaER3dmrXVo+KorV1dLaPtBG0ADovljnE=
  0
TEXT
  8
0
  6
CONTINUOUS
 10
0.000000
 20
-33.500000
 40
0.200000
  1
$PLWDWGiOKTOuk4bjVm1T1uAoSdEe7K4kqXNt0C+SdBStaulnYqVSrIGfH25Seq0AAPo8+3bD71sqCwvcth3vNfDnAwIzs+6AcszoFH/AcgZCOLErh1FwXfYdqvd45EFclhCWeucyiIbq/KD9Jvt28hOZigPl7DQdVyde5x94AXyY9Phw4=
  0
TEXT
  8
0
  6
CONTINUOUS
 10
0.000000
 20
-33.750000
 40
0.200000
  1
$PLWDWG0zuhmqVWclRpnhZ2SYI5j7oEUliFMgS5HGl0PDTa+Q4lgGzKGP+X4jNp8JBK8nr4MmEtq63JK+6ZiRmZHhXLf+BwLeCHUDxPVy0uFGIDuJ9LUof2CRIkHgdILF3NVqjoAVylW70LGaezgN7oK45UG3gi7Ne3BlV/aAxbgEwWqUE=
  0
TEXT
  8
0
  6
CONTINUOUS
 10
0.000000
 20
-34.000000
 40
0.200000
  1
$PLWDWG+8Wi9gvmFbbLGxiEI5os7E0AfnLxLaMh3uV/yIfSBDIyw9cb3tNPLLG2/Ik6YeD581mNx/rkrUpCCdzSdAQ1L8Cz0Fws0hEzXM4TkC2CxJWdTaODhcZ6miL1JAvT0+eG2W39kUqvDgK/sGyRtBMjajpi7ijBZm9EcGE/9MTOCNc=
  0
TEXT
  8
0
  6
CONTINUOUS
 10
0.000000
 20
-34.250000
 40
0.200000
  1
$PLWDWGQWuuGPzPbpf0lj0mpXcMXG9BVJhSahvq+JIrI8VuA52vN+yIiDWY3dCBGGfHLJrI4aL/IA3MsEfFc4f8xwvORCV5j5L4/tRhPODFz+ZaAvs5zcdfy/iPycz2BQtRTfJSmaVAXlC/OzrLFO0O3Ry8Ww/Iw5oZh5Q2Z+SD6xPh3Oc=
  0
TEXT
  8
0
  6
CONTINUOUS
 10
0.000000
 20
-34.500000
 40
0.200000
  1
$PLWDWGo2QEFiQ/C5s6rVKo2aNLSnyiVeW3Nwxbw5mFSYxWQhzrGy653gl2ItLtrRR/t7noTrz3xtOvaMy/6jkP0mhRNzd+TdtP1LEvxkRZz9Wbp+vchvQVMyfCyDIeRIakG5YpDdmMxK2MttQkA8XvS7pplIR2xGlRzOrNxTIcbO5YgTg=
  0
TEXT
  8
0
  6
CONTINUOUS
 10
0.000000
 20
-34.750000
 40
0.200000
  1
$PLWDWGv0g35m0eDxaAPDASAcE1QHkcMhvZU0GTeUajdq3JNUCaXgQcyvufOZnja0ywmMuDaHD3Z9dQU2MOIZ7tT/MDNZe20LZmjzqT3SfsLLQXCpbfJH4g6eGGjABTDFMbHtKeQW6IozcL+z0++WXrmRjDWht5B0WtQFRomN31faUXgYE=
  0
TEXT
  8
0
  6
CONTINUOUS
 10
0.000000
 20
-35.000000
 40
0.200000
  1
$PLWDWGgDPSUD1YSMPwLIi5nEAuoLm1o4pTpNqmYWAzCOUV2AZCgT6GShGUDmYaZq0wkaFdwnBtN4/xaKg/WCUsogyHUPiffvwau1uGFw2hLr13zBQY34aUQ6PmDa3vYEcgJHWxYh4buhf1U10n58wcuzL2oefA2+LlI1VYuUqDmNQNNhg=
  0
TEXT
  8
0
  6
CONTINUOUS
 10
0.000000
 20
-35.250000
 40
0.200000
  1
$PLWDWGK9W3q92FSFSg0eSomW5GG0azT7igGdEuKclxSO1AQsQs3QAmLABt6oUEdZkf5J0BViyjbbVua9An8WlD9iIURMgkFcrg/+MPtiJRFc+vd0a71vXVnOlQMIqeIWZDL8A6UggXHo5zsBsPircORmyQXoCbOcaK/sLhNl1i3jBPm0I=
  0
TEXT
  8
0
  6
CONTINUOUS
 10
0.000000
 20
-35.500000
 40
0.200000
  1
$PLWDWGrwnvpT1Ouq8frX9HrviPB0lAqJcCp+aUmHTSCghuvZcxlz1k5kCnsRiB2ZNgEvdFGDa3mLwCOKiuA0JFgH0wbnZUz/LA/m8iivvt3MFPnedNu7WdbN8f8gewJz4dW8/yFZh++QPoCVtcaf2F1Use58xFkBptsPxv4ghegLm6bxU=
  0
TEXT
  8
0
  6
CONTINUOUS
 10
0.000000
 20
-35.750000
 40
0.200000
  1
$PLWDWGnC/nheBrEEufBuNr4unJR/zMisx9XJigJ48mGAErj1LDAfMA1CYGZa0dxQ6wgNB84Z5JrZk6S18W0bxI3mt0K7yOSPJQDBxxMi+WIx+diBjYE+FbZKrP4pxiJ+P0ccng2t0T3peEHET1EjMc3pOMw91VvrozRUZfTDDfbVwLVR0=
  0
TEXT
  8
0
  6
CONTINUOUS
 10
0.000000
 20
-36.000000
 40
0.200000
  1
$PLWDWG38HdOev+XsebnDgZTN/ENiLf+FtfDmppx3mfgud23yqe77KYt+DICZcZTLr5rcO/Iy4KgqUGvkJD+jUsCGYB8aJV9sGat3o7cVLpyyGhBsA8E9i9nyowVNAXP/shVbtR8wK1Q+whrhlhPpL/p31KdFnZ4ZgOQ8IDc5LNrbVaEik=
  0
TEXT
  8
0
  6
CONTINUOUS
 10
0.000000
 20
-36.250000
 40
0.200000
  1
$PLWDWGzP0+AzwwPHR28zDUgtZegSUoPcWj4IUC43+GO3b9Dl26wv/1pKfCLJZFBq0GPXTIIi4O030mCXMfDBQE7jDQsZSE9nmhORpm+dV3Mb5Jd97gZJjFo6RIB17T/qc7pnPmigXU9r96JFQfLEm8hFOPTfuOiGUxXCEYhicj4yD5rzk=
  0
TEXT
  8
0
  6
CONTINUOUS
 10
0.000000
 20
-36.500000
 40
0.200000
  1
$PLWDWGOBZZDgSLl7GSV/K0kAkXNl3wbkU6rMIlIaQMlQCNl41KE1oi1zC9RzJwZ2mIs2fBM5zWKEQKXCucHpl+vZ8apwvkJeLZmpczvL9sGQQb1z7RpJ2k4ZwA8Yx0CNtLBdEV+3nVAcweLNW4HuEKZjqOA8bHLe+7gT5m6hItaOhL38s=
  0
TEXT
  8
0
  6
CONTINUOUS
 10
0.000000
 20
-36.750000
 40
0.200000
  1
$PLWDWGoiZoE58u7JPGq5MNz0Q1jW9R1tSuffz10xEbZtVYO4cFBCmHPdfVsaGz7v0HPzhA2f3lu6T1uEZz08T7Xk84QHUYK62/lqfCShPtATrmo9iRKD/TS/T3Vd0bUR66EmIEcUwUb5e7JVrJMUxhsgjeuxfzNCoZGPOMnhET4elCLQs=
  0
TEXT
  8
0
  6
CONTINUOUS
 10
0.000000
 20
-37.000000
 40
0.200000
  1
$PLWDWGWsCk0YNGCMhR3jeg8ruYhScMRQMw5OPUF+4YEM4ZGkIHyUUGHOXfbr+pGHvnN/wK1RmciKhbo5LU48wSpz2Vd+Sfp3Pk0DGqIDG2PMepoumlTbit7RXXa9YEpQ17CPQD0EWHkPDI3rNemACjNrZNhYYVYPZ5X2NHY++qqAgz5bk=
  0
TEXT
  8
0
  6
CONTINUOUS
 10
0.000000
 20
-37.250000
 40
0.200000
  1
$PLWDWGksBjXQlrQp11MFWH1BLyqwGqIBr4CObzjim5ie5eQZNV+uiFFAgrw21NyH6KlpTRhHIyLBSL7Syxh9yirtWSzafj/XQHgK+wlprPcZZhIsmtvIbBDqO+991gjWeOB3+5gjVbqf1gxrTvu2F5lbjhY9qGaZpamZkRtFzcIxUgQoo=
  0
TEXT
  8
0
  6
CONTINUOUS
 10
0.000000
 20
-37.500000
 40
0.200000
  1
$PLWDWGUXjPdasFjsVdjJDh/+EQqm+cpSJTvsXmh00LqstRW4KzSKyinMe9oQBllIHb+O9GDQ1SsDpUDjUBTUH2oT6zMx39B3OmSonXDFOuWE2/2n5Ny281TZq7MBk9O0qX9WOzbU/cBSoBtyQoarHhZDp6fw7uS3NLEoZLN4vAuWpjopI=
  0
TEXT
  8
0
  6
CONTINUOUS
 10
0.000000
 20
-37.750000
 40
0.200000
  1
$PLWDWG0kZTBi7nBPz1/uASkVtpmBdRoYbzOGeJA1/e7bW9DchNTkGgJ076+JOelg+HWnuLEm+11g9RSn3ZGO5OW5kScWIxH/5GpcO1haWw859kKmlnL62x0yw1o1y5msg3vI1FdpXzKhsrcB2nR4OuFioMAN+fEEPLrR0hWEQwuHzsQ4U=
  0
TEXT
  8
0
  6
CONTINUOUS
 10
0.000000
 20
-38.000000
 40
0.200000
  1
$PLWDWGNE5DUPG/csFxw65Zj0lxxrzKZhhXh9SgyxSK0ooAgW0AI6xhy7OH4M57P7t1BQ/g/ka4Jh3wSy0wSsYSmTKx6bh3kZZBLDUsGMaW2t1QQfQt8O3gfEGMet2hCfqORGjWAxM0/5D1OjBu5A78ECo3CaD+VEI4kBPIi/lf/kZC91k=
  0
TEXT
  8
0
  6
CONTINUOUS
 10
0.000000
 20
-38.250000
 40
0.200000
  1
$PLWDWGfkmZ+uxGDCJRH2tsKePvDNp6Ihqxck4IhFBnP4T/oV1kjPOpQsxXHWjoizaWnRIb3lBFNgKuHFruwy0ysRivb8z3Sy+LChyhk0i4/rMGDNi9SnNfZPyrFuZ+drBHKqB1iDmLuqXj8sqRuIkpqaVYueRNQnY3Kmpd4FiRdeYfPhE=
  0
TEXT
  8
0
  6
CONTINUOUS
 10
0.000000
 20
-38.500000
 40
0.200000
  1
$PLWDWGeMFME73jIlqeY0+nGrtm/Z0G9WfUr5/NT8SRLAUkVcmYNgiqW5hsrNcKOuhSdl3JlUNxL+OCxr/w7vAYKu3/XgLnJcrGbAardJIj9jHCQhKfNHQkv0cbVoMhC6Ue7xp3tz+D4WdZd71VWe6yKPApnBIwMAYXS+3usDpU5wut7CA=
  0
TEXT
  8
0
  6
CONTINUOUS
 10
0.000000
 20
-38.750000
 40
0.200000
  1
$PLWDWG49Ffis5BCvAotbSGobaWSV9t3VqnaNj0s3D29QAvnUkg3khrPV70mjKOay8Vdsat4hXRiIfkfgkvZcCjCpzSsH4fqClwkEpsVezB30IbMkCyUkc0i9Q4McuuM0qCADJAvEBkvUvymwK9xL1wckCHY9AS+pOrJl9KEbxk+4xtCyk=
  0
TEXT
  8
0
  6
CONTINUOUS
 10
0.000000
 20
-39.000000
 40
0.200000
  1
$PLWDWGnGPTTYNZT66Oi3PfVE9nRjLqtjDB13pol2nLNJUZdH9PBNn9gFWaAHIzkDw2ipjLciqA4bIx9vFf2eKIMe30JcnkECZAQhEvmsAk/hGGCN3MfAycK40gkY2hSFQu0l6P4Q2Mj2ZBGbZyoD0huds4gAA3oV20RWTHgEXw0re5y5o=
  0
TEXT
  8
0
  6
CONTINUOUS
 10
0.000000
 20
-39.250000
 40
0.200000
  1
$PLWDWG1oPsgY2eV+7ATpWrmTApbK34O8ZHj3HrT0qmXmotKFdZVww4Z81JvcpInQjvb/xI6Ym/ma4lRtvehWOAJXtQmpDGLM8IlBhFdH4LYpUJp/7JwUZg2xR2L1QR4q1SKjpy5C7JT62V/+izoNvZQtZ9Tv8WUTDxf3oPhQmT+cWHXSU=
  0
TEXT
  8
0
  6
CONTINUOUS
 10
0.000000
 20
-39.500000
 40
0.200000
  1
$PLWDWGu95jNQmZwiMNWUBGWbDjpbi3f9Wva/BiKKQ5H+A+X/uEiX2phGDKho9oL8MlcmQbPaQUGp8zt9ABeSqG0ByJf+8+KquPOGpZOtcEiUP3zUgDZEeoXAXuTTgYrVYycbSafRc6jGeMDnBa0YCGu7+n2nUP7jrF8BcVhvn7Uwt3APA=
  0
TEXT
  8
0
  6
CONTINUOUS
 10
0.000000
 20
-39.750000
 40
0.200000
  1
$PLWDWGliKs5pI6lhP+O3nvLSsz/TC8YK6womSyALTBqWAG/bFcs16gm7xPdFqX81XO9C9uHVftcBJ+cZkdocKQWi18jwyMRd0GWe4Mcz9+ekZEvyA1g55qWcQPbpDoCVgm2UoO0Bn1tQsM29LsIZ40+QeQ4ugq4hOuLwhY/1+t8fspN9g=
  0
TEXT
  8
0
  6
CONTINUOUS
 10
0.000000
 20
-40.000000
 40
0.200000
  1
$PLWDWG3tXIeVi5daVaHTxrwu/gujX+nkV2VAyooYbAd8hZQzDdu/3/FOc5UWxxzKu4FjqFMpCtEbtxBTkjkQpG9muR9gAlu0FARP+oEj3MpG9YcRaU4Hr7E51GhQysUzYz8SNAXIDBbSo5b/XYyGP+/XmN9W0R95kSlAkHMAudU8058vw=
  0
TEXT
  8
0
  6
CONTINUOUS
 10
0.000000
 20
-40.250000
 40
0.200000
  1
$PLWDWG2tG3yDcwxhmt+19/C2SJBGS4XiaQavXPTytuZUpvtqnPSdjG7vAh+ehDMzzZkjkWSMw6B42M4RtzVFysLx2YuRJ/ufx6CZj75lDHFQm7uaXiucw4DBPaG0Qt34xGwqUN2rPhqVZlyeKQR2Cy2EOWqBXReon4JE6MyVdXPcfDIR4=
  0
TEXT
  8
0
  6
CONTINUOUS
 10
0.000000
 20
-40.500000
 40
0.200000
  1
$PLWDWGyuCIi4c3mkdnNnR1kqA1za0x/6KzGhpab5xPVjQwremXqqL4e5tECuu248Oioy9Pzk3gVet908l00j7701/W6y+v7tHnYoBg5sjbLIvGbL7ASc7cWyRb4kD6Z9uTDWRHLBBO5/CaavxgBRfAHFw43UjupukDZEH2dLc3TJEA9wI=
  0
TEXT
  8
0
  6
CONTINUOUS
 10
0.000000
 20
-40.750000
 40
0.200000
  1
$PLWDWGA6g/IsxVThPUhMgQHVdBzVR75adUvseiOh8oPSwXzKPy0FNYucftykEhMM3xr+CFkdQYNlWnUI5R4jOG9m4tWYS32cjuF0BoxsmtZC+TVNynhSzKgiV1catZ4/M8TKRvNM09uzC6UxxSOJEEIoM4QHTLxaAB5XMbsVPD58yEcGQ=
  0
TEXT
  8
0
  6
CONTINUOUS
 10
0.000000
 20
-41.000000
 40
0.200000
  1
$PLWDWGdV1JiEuqmDd63fara/F/b5DcpBCJLfwazUW/lEkIym8D7DqmZorPGrM1g2ey1ozh6ejQwtgj+OrX8Ohj+OvMBfVV5Q9w5Pu21jheA72fn0+6CPY09NEEP2CwQang+lE0zUK2E1LDknikLqwpmL25RkP7wZlGRNz+SZ2LQjDtkm4=
  0
TEXT
  8
0
  6
CONTINUOUS
 10
0.000000
 20
-41.250000
 40
0.200000
  1
$PLWDWGsYkd9hArqlkhtI0Fd8A3yHF+oQRQAbGJXWPO+z2RMJnhI3QmW+zk3ViyVccQXx3s6ao4z313CJwyoG7286SvT3yep9uPFd5ifIzDN95Siy27ARq06LjPUwwfL1I3m8+lLsLxhomD1lXBrj5pXfxOuREJGpOMH/9uttETPwLuwDM=
  0
TEXT
  8
0
  6
CONTINUOUS
 10
0.000000
 20
-41.500000
 40
0.200000
  1
$PLWDWGOtull2DiV5aTg7JfJqUa/pP2OLukoz9LZUUAp2VChWcpWdL3cvi0Dv+u9Ret9jdO/jDyINY/g/pjN2bAxubX7URy68Xr7qFZ53LGGAkbZddd5hX7o1lp8panZYSsid7md6GkDwIIk/bEI8XFljOdiDJS8hTkQZp7qnGs8znI7PY=
  0
TEXT
  8
0
  6
CONTINUOUS
 10
0.000000
 20
-41.750000
 40
0.200000
  1
$PLWDWGCYWs9mx9gd7K1C3P+DWHOr6ejtOGOWWyRt11suEqZbk1MuAsT0lBWeIu4atQ2M7QuDK/IF8j1r5EMlBYi8clci918b0h+bja34WxEOGSbuD7uyGDjh/pweWv6+ZFDUaRFVfgeFmd5LQndgF3uHxvpdbyUzWwMlXUkgKWBYrvhk4=
  0
TEXT
  8
0
  6
CONTINUOUS
 10
0.000000
 20
-42.000000
 40
0.200000
  1
$PLWDWGaKl+KLcmqOLR7ubTeMA+wiF7tDdHXyCS/IIjlk4hzFM8SM++7c3O7jjWn7LOEOJJRMqi2ls/krSg9VdD2XbycZdjmfoX1AostVH/P8cF+zACZ/6o/8m6gCsJ5ftTyx9QnxPbvBepZEPa4Bf8Qc2y/Jze0ev9mqmVfNczWRTJ91U=
  0
TEXT
  8
0
  6
CONTINUOUS
 10
0.000000
 20
-42.250000
 40
0.200000
  1
$PLWDWGYWpDqWoNHOFvjikK9SqL3H5m2i6P4mloFraGMYUvoEAHerEIExuBxYwAnvG7vNgPXpH6sAXhJ+bN0Wc0mUzaC5nrghhU9wCb9iTfCRTyPBP8tr8xTtac6OFKWNqpZxhcrAig7HHDdigwB2vI+Lfxh/pJzBRhysMFDWBBz0WO2b0=
  0
TEXT
  8
0
  6
CONTINUOUS
 10
0.000000
 20
-42.500000
 40
0.200000
  1
$PLWDWGXRZK6UGqwaB8JGUX7O+nheh4hjeNiMcyCllmAQn4cucxlC4QNiMNrLtxRG2LnuQyNmhlRekX2MaMw9XDFmcbSQMqVDez3mD5908UBO5pJXQm2dD0yi1udflBd/fnzboEFo4z14IhBIr2lgCRPlJyQ8vpPqb6V8qB+Z6WIZ9NLKM=
  0
TEXT
  8
0
  6
CONTINUOUS
 10
0.000000
 20
-42.750000
 40
0.200000
  1
$PLWDWGtgifbZLv/g77391sRAG9rw+RVC/W4Sxuhbw3Z8fjD+/qpjucxO7aAefJyWyzfkTQKlFXqKNnxAWFRhZqdfm6MLan81g7QdC/+v2ewmVBk2CLeku28+xztk+hcvtVAtXm130SCAv48i0w3wcs/OpavxA6VcFw9UJJKP/uHAT+L0A=
  0
TEXT
  8
0
  6
CONTINUOUS
 10
0.000000
 20
-43.000000
 40
0.200000
  1
$PLWDWGe48AMBTS91VEooap1AwwQO3ad2Yrw/P46xlYm36DFM9y5aWoYzzsduoOKe1CW7BO6ipLNfVle3ASidRfcfK3fAwPLb4/cvYTkKk7lsPhqnMU85Z8/Jk5UZzXEi5OiNi83adH/oBL7IVva7Cje2/zn9J/xliIooBhD9PM65s7eVI=
  0
TEXT
  8
0
  6
CONTINUOUS
 10
0.000000
 20
-43.250000
 40
0.200000
  1
$PLWDWGgTuv/ys3N2XFZf3AKz4WVDV4L8AdFmZEGwQWdOG2KIENNJXOCniMsfFVowSo2171FReB/dXhJiz0TxGhiI+LCToLINDL/pjngAwNjkBxghUlB1OCMIeEFP24BTGMV2kc6ZKOZXy3HSbi9GWUwVOBCucdkNiN/6/Sv5rvx/oSiYI=
  0
TEXT
  8
0
  6
CONTINUOUS
 10
0.000000
 20
-43.500000
 40
0.200000
  1
$PLWDWGiZXuz0FUeC1F2cPHOzAQau+myOZ0G+8nfkxGZgRBS/EFkbTnxPXha6R/HemM3/7Vpcnk80/mVre8SH2yBmHLEuTGBCEd3H57xk6gcAeBMs1HBTDlZBSOSjhKzZxSRro7LYtJdksoVU+Yz4UOqQQb1vsTKnRPCc6CIUy+Wl5+8l4=
  0
TEXT
  8
0
  6
CONTINUOUS
 10
0.000000
 20
-43.750000
 40
0.200000
  1
$PLWDWGHlcI/EC6k4/DNSXh+2iwOb/4ZZhOEgynEegNLndp3Q4TfltadHVGCVpIQ7r13rQ4MtiXhAfd6p4hTWZkP6CJ7nsLUOaBIdSD0LuiDqvVl+nxJ8OQj+ghtbYrxeM1nqr4vHGxI8i7DsXxGD0ugh9DnanvGBFKkGMEsMAFa54ktiA=
  0
TEXT
  8
0
  6
CONTINUOUS
 10
0.000000
 20
-44.000000
 40
0.200000
  1
$PLWDWGPMo2ktfylAzCdbqzQkuHJgv6+2hyCwWKn0ihVvZrAqWbG8oDl82bic+w5gTA8ud/4rqrO5yG1OQA0d52dOH129vJ9e/ZZwf4WX0um+M1T5LhrawkWWYdlzrQfKzpue45RN5pHVHi/WERI/Qy4LSdJ2fGKChwbYicHd2tCnIs5zI=
  0
TEXT
  8
0
  6
CONTINUOUS
 10
0.000000
 20
-44.250000
 40
0.200000
  1
$PLWDWGpjdB8Qg0eVMPsfVAs19m8etVf+Yi17msVsjnCSoYUqkrNG23UHBdXDnRo/Eje22OhMl4SZDaCaqSQdVPQpPh+xzgfRg3gvXBkODhpnr2Ao/1B4ASkxuqPe4/uAuKs4E2Nz/w9P+1/zki6CTMlEPl5HXcbfoNIMZ84ZmUfJuPmoY=
  0
TEXT
  8
0
  6
CONTINUOUS
 10
0.000000
 20
-44.500000
 40
0.200000
  1
$PLWDWGqBHeVtwVenFfBG5ikpJviM9DbLG/5G2ac4qZ4S1pLea4SZnCkzuTkox3QWaDJawHlbCfztRtcL4CljJc0OawD27cmSjFwNbOZ9XlJ/7o4bk6IvlUXf7k3lj+7gp6qcO+yt9VX9GyZSumUh5RjWEVCEVb20pGC3d2lnvy43o1Ktk=
  0
TEXT
  8
0
  6
CONTINUOUS
 10
0.000000
 20
-44.750000
 40
0.200000
  1
$PLWDWGEXJ+wDFHBzFkj9TY4giVt+EDvpqP2SeOjb0zvfmp3B8oD8thZQGfgzLkYBfoOl9UsyKudn/Jk/2YKSz7nMKsenxkZ5b7ssKhLmr3XMjcyqpMgCvhy3eW24qF+C6dJFfn/3uHuLzk8+MVeVL88bZ2wsgm1fOWYKuv3BTmEQFIeAA=
  0
TEXT
  8
0
  6
CONTINUOUS
 10
0.000000
 20
-45.000000
 40
0.200000
  1
$PLWDWGcMIjeNNWg0A136OBquFpILXxVkTY1/Q4ZDWy7x7HNkAIARPGBvMUzGQ97nOkR5eBgVYO+9zpl1saUN+++7tliECj20VPky/aTr2SiFr6zbGhx8dgJvaDO7p1MinocD5RqNW2OT4sPwplnD5coMDZqw4zlV4uz1NbAvJuoHn2t1M=
  0
TEXT
  8
0
  6
CONTINUOUS
 10
0.000000
 20
-45.250000
 40
0.200000
  1
$PLWDWG5daw/BbU08B6jqmkQ5Wzw4ik0HzQOPmkoKBd/nUiWM1WTzGTziHzM/uqCAKQ2fJ0EoAAMeSP9b79zQjpQxWQ/mxGscEMGMMVsqj2UTQfcHuoXYRrbI101WnyQXzD9OGJXYH0C+2iER4y+gCeXeHizciigp6KhIW2jpnb2BS1P+Q=
  0
TEXT
  8
0
  6
CONTINUOUS
 10
0.000000
 20
-45.500000
 40
0.200000
  1
$PLWDWGsZX27zPAz1Vf0he1gH1p3EK9b/5N2dnz0QkcCtm8xmKrjGPXxqUfzrJDZrEEziayVfIrPByFRnYx0FCB5VrIFlAgwtZU7Y4U6Q62mNdg56sdvMDA8F8QEAyJFD39b0sjWKvypog4SEc8iaWv0/LMcvPQoEfpjcqObzoy2PXNf+Y=
  0
TEXT
  8
0
  6
CONTINUOUS
 10
0.000000
 20
-45.750000
 40
0.200000
  1
$PLWDWGUP8UcAnJmj3bGbe9WPL8KfeXVRviyo8qJp+vtrOxmHFMRrb8lDJkKXcuf9TAbRGdWzYWrXvWTR0/AhcwSDLzzpNtMyRs7UEWbS1iTfKecjffnBVxRxp6qzlgJR0bRSAB71Hl8G8/GTHV5pz5YDgdP80L1BT5RTPhqji2G6XoudY=
  0
TEXT
  8
0
  6
CONTINUOUS
 10
0.000000
 20
-46.000000
 40
0.200000
  1
$PLWDWGb0mnUO+r68HhYp5OCeRoCAyPQCDw+8gaf20KTe3rHDS9D7acfXhbn3ovO3qc6celHDuHC1Z04IAfb3etumUvh2k7vzynZlQvQVr4IkQfuVB3zXn2r+7Pp0TmfJgs1N7/hMc/xQlt8g/GLCGEw5oQTyCHTq6NsKxHRCizk1bfPnk=
  0
TEXT
  8
0
  6
CONTINUOUS
 10
0.000000
 20
-46.250000
 40
0.200000
  1
$PLWDWGrNUEuPTrI96OxcjbdBtBzYCOIOnDAQlHjl0IVKAboQPj2coKLcLZmBBw0TUkVvfW9MEEHZFnx6AfW+1oOGP42sDHI+ftbjBDQK7kLe5pr0uYhSaKoM37o7bdLTMDWy8+Ms5cZdX+Eosz2x+vEaGSyzRt7S7A9tDLYpCBafvysl4=
  0
TEXT
  8
0
  6
CONTINUOUS
 10
0.000000
 20
-46.500000
 40
0.200000
  1
$PLWDWGJxF8NQd3MkrCicjNoqv8kHT+ckQkxn8R2W+dvuay/V/+in21cB48NJdIjH48ngp/q5Q7jpwJ3f9TwAmcItXlUI4bOOeKiy8MlWHin0Dw/IvDg/L3yKtCpiPEgR6q3yHpc/ovCDhE4rQZMWBTg+En+ECIo+CGtPjkMB+DtD3GKjE=
  0
TEXT
  8
0
  6
CONTINUOUS
 10
0.000000
 20
-46.750000
 40
0.200000
  1
$PLWDWGAehIyUKCEvzgLCcEWFvnEn0gGcDKBY/Sjg1me/04SipUcaWgFPHVh7jCGSqDzCivbMgUedEYqf+6zeALsOohQM+3U1ed7mghrOZvUjOzgrQPt2M58AMJRXaOnFAB+vnBPZhlCjfq8tSQ84pUhAL6si4BB8+ElZxQjL+QDoatAkM=
  0
TEXT
  8
0
  6
CONTINUOUS
 10
0.000000
 20
-47.000000
 40
0.200000
  1
$PLWDWGk9ygB8HMTvphViJCc06nRMQdTzN/Bpwr9nRN+RQpFv3rSyCmjgVJUdy1s+ROfjBArV4MDY9S3PbcPV7+lTS6wJNnujKGVhIEhUT4dZ8U8uvQ0fIBRblGiOvK0ojmlNfKxMOUqtrw48RwJvF8wiA1XBhjt1Q2ImcwLnEDiIzbmJo=
  0
TEXT
  8
0
  6
CONTINUOUS
 10
0.000000
 20
-47.250000
 40
0.200000
  1
$PLWDWGcUL3v3JCPaymkm0xEJEZPnCOTYh+YSZboQ9E7s1Loi48H0TpkOSgJMCBM2rinoC8euGBoJFiUCca7Sh39m+vo5DAlNZj5XlHgWAZTBiRRBdNfu+/N5jn67UsQf289Av7520bvt8GYM549KxEn4yO6s/uCslywOKBvvFx71go44k=
  0
TEXT
  8
0
  6
CONTINUOUS
 10
0.000000
 20
-47.500000
 40
0.200000
  1
$PLWDWGVSq71aagTF/mOA0lmZa+pe6I2cNork9RaFcofXpmAtnPhdDadjY14uX7ISMSbVUkM76BF0A6iUYiNaUkHf77oMM6CT644aqg/SjrQG8/jRZ3fmkpOuuGjcLsVFWE/RcHLXT3m9UL898ksIBF3CreZvIrcUOkCOnvzhGzl4Wax9c=
  0
TEXT
  8
0
  6
CONTINUOUS
 10
0.000000
 20
-47.750000
 40
0.200000
  1
$PLWDWGPSnF2atniZ07tE3IPP3XHkWHWOkCYWBL5d2G9AG52DM/IFLaQz1Qh3LboAw3WoBXD37Ctz2/65AzcKzbd4QUwWQOwFd0fR0sC/zOmPaLT/1NARq8/AAHXPcU3tL0e4iXSH7M7hU4dLGvw1i4BR0uX5DIDIeT76EVLYBJJjjlTZ8=
  0
TEXT
  8
0
  6
CONTINUOUS
 10
0.000000
 20
-48.000000
 40
0.200000
  1
$PLWDWGAi6JzSX7BfPnhWd9W6g6rwQoRUzelDXCCaqnZOLnF68QJPfchSUsIF+p6H1p6hWkVz8tJQfw6IWh8/O3N/SGQPehB2UNkm5T0wyaYy5uIUOwi1dVk2Bs9OgpIgzUqLOn/kMpuSJvpCNqrg56R+tc6W3WhH5VgSf7IWecClft/8E=
  0
TEXT
  8
0
  6
CONTINUOUS
 10
0.000000
 20
-48.250000
 40
0.200000
  1
$PLWDWGF1heXKGWgELGx+ccXwT92QtL30dTP7IvuTMUtjC4f6I7IfLeAWQZvGuBz3qU3G9+UiQ254X523cewL38wj04FMP4TMKh/RVJMIhtiGBWhOh8C/JfTfJNohXRkauCxq/WylXO89lv8FtuOa0UBLzQmGXDu5yWWwYCP8DeR2wm7SQ=
  0
TEXT
  8
0
  6
CONTINUOUS
 10
0.000000
 20
-48.500000
 40
0.200000
  1
$PLWDWG+SctIuYexDUsOZ7JedwbopgevyzEPYbTzXnMhVQCtuCNvLXyuE2ZFzIODRVaq102H6kaarYkK1HFFJD2VKtHaoYVTR95+KJdclUMEjrJd+ZIHHJViLV9xfZRw5Ec0uGAwUF8rXYYBbkKL94i4PbqRh/TuVLlj0w9wMfYoJGwWTc=
  0
TEXT
  8
0
  6
CONTINUOUS
 10
0.000000
 20
-48.750000
 40
0.200000
  1
$PLWDWGZkPNmR96S8/0xOB4AAIS+RAg9rwmmzRwzQWDp81tFskyVSdm2GYLUM8EuvdD1j6m4GXTdztp9lpS53mnQLJkfpmuO8DBDABLFhHWPMxmot5w4p5pw6o9QY2buNNaiggdBummaAkiySaEKzKidr+1gOEBpiaxW0f5zQ0qzZER9tg=
  0
TEXT
  8
0
  6
CONTINUOUS
 10
0.000000
 20
-49.000000
 40
0.200000
  1
$PLWDWGLB3/geBiDkTcGC+zjDDgDBQ4tMMkcEUlyl3cgxy2vWdaBo1PqnK2c9GliovH7ttDedoJZ33AllnXd1kILu04QIHsxHhj2FVRNbvY49r5qoU4uiCm2cUYq7ytbmBV541abIqTMgvAvDuTYwj8HewF4NqFsk5V0VblSL93T4Znbjg=
  0
TEXT
  8
0
  6
CONTINUOUS
 10
0.000000
 20
-49.250000
 40
0.200000
  1
$PLWDWGdTomRjAUIrcnRJkZuAwsg+7t+kYQ/26QoQKKxYP5++zf3un3mOSPl/+plvvRhkmGE7ekQk7pd4WnVttsbq69QU21ur5d9SOow7JTmhNwVp+vUBOFCAFOl3t+Y3HsAjOVE7q1nySVZj9d8QMlanyqvpeHRpC6AilP3smvyUYmie8=
  0
TEXT
  8
0
  6
CONTINUOUS
 10
0.000000
 20
-49.500000
 40
0.200000
  1
$PLWDWGIgpAGyWVBYf4qy97L89eYRbQDf3qFA8TvA3wUMi7tngqhxsyr9tl1YAjaaGwepa2d8oTVMDCpS26a0aMijCZHzds5Ttzjc3El2byoLBA5Y0gLUCLfFgoxRG/BOdRZlUy+lgTq+pJj/xaQto7KCT677jSGkeAIVhzOcReeJOYEJU=
  0
TEXT
  8
0
  6
CONTINUOUS
 10
0.000000
 20
-49.750000
 40
0.200000
  1
$PLWDWGTWlpfMvuNqpXw9fqrf52LYkg+Qkm76ry3v4rnt5gzFxmCGVXuAVditSFd+fBom12jdK133dOVP/N2CUzAUy8k3MiTx6qDux67+R5q0J+disL2/dXIDi4TNJifSqgY3GY8i9HH3m9M4vlQ7q9JD8Fm9SGzxrTR9RRWi/UbGnrvEI=
  0
TEXT
  8
0
  6
CONTINUOUS
 10
0.000000
 20
-50.000000
 40
0.200000
  1
$PLWDWGxeqWEHk80bicAGo19RaUOJ9Dp4ICaODoOTu7i01rdkMF8paYwKXbx6CobFmqlAB/9xWtnSxVuHUSQe6JJM1zz6pBvg+TmbPqiUHaRkVdYwxpyjwPSE1ESn/AvxMZ/QA3NiOvB+/PKsM+9GSrXAluexEbQ74SGHU/xEz1ZeDrEPg=
  0
TEXT
  8
0
  6
CONTINUOUS
 10
0.000000
 20
-50.250000
 40
0.200000
  1
$PLWDWG8q1JqfodqNBYSpjSZHjqY0XaEqZu0ErtYIZ/lARVdcFYFszMnRwAuof9xn/1/HpLr75lkMWl5My1lShr8pZ2uH+f0jtaEmbtweEh1EDRgJKxqDnV7b6QN8o3yYJoN/qRsLW/4OSDvTzdRQdjACjulQeIqHUsPqk6PX1sABfbuBk=
  0
TEXT
  8
0
  6
CONTINUOUS
 10
0.000000
 20
-50.500000
 40
0.200000
  1
$PLWDWGRk/DtrBsCsp9iO/gVnCw0rubygAuLDADAQZGTv3K6gzzsmp7Wea/B8M6evogv5aZvLQWbAVNLN+JHSUqal1EvkNKKyaPP8fZ4TwT7SXa5FHwq8VpUxsbj68aVl7vKXCISuXcmHjD6EKLS1v6mMyXjWa0kjciBC3lQ2sEb4Q+CS8=
  0
TEXT
  8
0
  6
CONTINUOUS
 10
0.000000
 20
-50.750000
 40
0.200000
  1
$PLWDWGJm7CTbccZIn/8saju3xqzakoyotaVTtflBZHuokU8aGmo1pqhJ+WJyPNoPgkV+gU/swYJM4NFisvdZOkWk/MgS6tz5lYkUtvxciQLrwFoQnBMO0p5lhgHoEF5fiBoxpSexxWMotNRvIW1j37VSkT7DigiUcLgptW82suFFZBOHY=
  0
TEXT
  8
0
  6
CONTINUOUS
 10
0.000000
 20
-51.000000
 40
0.200000
  1
$PLWDWGHJgsUnXrvSXC5R3gTbae40oHqoD66gSaj0rFIdTIUgOIU84DmWQRLzu3xZQH+L4mJjeyXxP2okyrloqcZqcfnDoD330E5rfvliUA2gjJOEBpcQ7KYOU0jpU2CHg3wT2251w2M1xVyhZwSVf+SPSuUBUZLkmZuR6oNN6y5uFbG3E=
  0
TEXT
  8
0
  6
CONTINUOUS
 10
0.000000
 20
-51.250000
 40
0.200000
  1
$PLWDWGsG72HcRm1DJVs2ADZa7HJjPjuguOIeNLGCLYMdJdRTPEV2ZPXtfxoMq5hzxx1LTmo6ev/wT9LGdIzy8PmcA56vmz2rNTJkjL1evRNRFqVH/EG2mWBRpkRuAiJdaag0GpICyWx1gOEGYhSNJXTiA3OOePpbS5r2+p+f4LGPddgM8=
  0
TEXT
  8
0
  6
CONTINUOUS
 10
0.000000
 20
-51.500000
 40
0.200000
  1
$PLWDWG350NGzt9SMpzzosvpcHvFl1uOei94UinAf2Q+UdHUusdxilaLZkyG9flkcoA837/fLgzFoIliy5QgW/m78xU5CXyR33B7JSX3qfxHpnPk+/5bG38ye2gNkLk08+vPuFxjnRMyaL9nThl7bKA6AOGYuvgT56QZFhfOXkucZ4iV+c=
  0
TEXT
  8
0
  6
CONTINUOUS
 10
0.000000
 20
-51.750000
 40
0.200000
  1
$PLWDWGuTASAvm/ODO6ZwaY4mghEWFDhAZHWIZ5tNTBA8XTj9CcYBYn2lryL11uksNGQOn3uEGALatyJUzREP1TWzNs3zjQztKJbH8AsdgY+h4p3/A/SVcZH8UXxySRTdNLAe4vG+LDhvccev5kFSNXqm7BPMu879SaU3rbtCvzZrTKrns=
  0
TEXT
  8
0
  6
CONTINUOUS
 10
0.000000
 20
-52.000000
 40
0.200000
  1
$PLWDWGCuF60ypUTlpBgbb/VRRC3/8UWCbacZ+3TE4xIdWfsdcH7Ag/hV0VGqGeS56RZwaLSuldhqjtf20ePqeSgLdQT861Vp07QbXf76sgQqb1ZSrIBU4+Mp6uLdacSt2OaFVR73Bei8a4h6EHejiCxVjImYfNE/FaGzv7HmXCZ786los=
  0
TEXT
  8
0
  6
CONTINUOUS
 10
0.000000
 20
-52.250000
 40
0.200000
  1
$PLWDWGa8VBkYMIuFEERdOWYTkWEGJH4AGHc4IxDHalscapAkUepJK1giF8H9TtIl0yNc3h8P9lo3vyhBRUI0+Bj3vXmhthgIi3N5uvzwwqTbkiNZLq3ItOfzQIlQA1IC5Ns15c2bizlWmrEUi9E+8SgoYqsPzH2/GLrXiw8EjshA0f5mQ=
  0
TEXT
  8
0
  6
CONTINUOUS
 10
0.000000
 20
-52.500000
 40
0.200000
  1
$PLWDWGCskn70ziiiB3ba5JPSdKdh/WKBAm22J6LgQKCnyLoytxURZSYtJqBZbOutUPRdh/tsnLZhQPg7M+DZbaaiElIat44uSPm8fOlNUBto6yB4hzQKDES8b0yfdFcyb1RmCcwyXGt2ObuwB01Xi/m3A8EyTKf4a1w1TgEeo82mWZQco=
  0
TEXT
  8
0
  6
CONTINUOUS
 10
0.000000
 20
-52.750000
 40
0.200000
  1
$PLWDWGES+mPQ9lqcDJ0l3gENeFBylJGFX7stNJ4wZVqvO0m07hh5jKnYf5JlWF0wRv9R90dmZnSMuxdE2GHbT4oUKsZscbSsYPdjMdRHceElhrRjGQQX3aNlYisX8x2YZysmj55T6eHlPSV0b3ZY/nab/JSyBgPil5KkvIENXFjkk11YQ=
  0
TEXT
  8
0
  6
CONTINUOUS
 10
0.000000
 20
-53.000000
 40
0.200000
  1
$PLWDWGDWuvUNKyrfsLsUmsb7LHH6ZgflL5TiCWHUBDzbZt3Z7+3UJYy+EPen/lyhWt00FVpQpRjlf8hRnejQGT/3K6WH1jnTgnkW4iJIc4mq6CE5MTpendtJJGFzbtXG2dOmSRncoJ8UScLR9Xved3i+c02XgBTHBl6AlK2xg/uaX4kIg=
  0
TEXT
  8
0
  6
CONTINUOUS
 10
0.000000
 20
-53.250000
 40
0.200000
  1
$PLWDWGo1nxdK1DHNYoSQfAIv7LeO0lDmSR9/0gbKNgjqaNmlixlt8wswx31lW2lwUZAaKN8panfiB2uhDZwgvqBlFIu+isOVagrTYQpDVC1ueTLp+0fAWDzXwrPMQm034rpAgVONHc22yc3C6n1O/wQkq6J7tzrwPYF4EHDenefsSVisw=
  0
TEXT
  8
0
  6
CONTINUOUS
 10
0.000000
 20
-53.500000
 40
0.200000
  1
$PLWDWGTzmDB061LZIfBvGexBpodqupV3k16QUsj1ikj+G98r++FYfS19HGkovw4pZpHFqRjlxkJKACkcbnH+dnefgbdSiU7p+cEDOly+eg3JzdgPuU2jRvHge+M4JAfpkNnnW8nBRrqAhW3c2UGUOLcF8AlFBsHVqwyoUV/NtNsQIJSLI=
  0
TEXT
  8
0
  6
CONTINUOUS
 10
0.000000
 20
-53.750000
 40
0.200000
  1
$PLWDWGhNw3TUL3kI8rONTdINqWMlTiqyO2UcSgWW2nmeHG+OM/xPcBLG//+URgCuT/x7IaZk7SXg4jSuX+37m0gAl210IWsLU4pbb5dD1Cj6PU+YaOkKkHG1bfafQqZDA7e3ewskgyVIt5
  0
ENDBLK
  8
0
  0
ENDSEC
  0
SECTION
  2
ENTITIES
  0
SOLID
  8
14
  6
CONTINUOUS
 10
13.081223
 20
47.850047
 11
13.081223
 21
47.350047
 12
14.781223
 22
47.350047
 13
14.781223
 23
47.350047
  0
SOLID
  8
14
  6
CONTINUOUS
 10
13.081223
 20
47.850047
 11
14.781223
 21
47.350047
 12
14.781223
 22
47.350047
 13
14.781223
 23
47.350047
  0
SOLID
  8
14
  6
CONTINUOUS
 10
13.081223
 20
47.850047
 11
14.781223
 21
47.350047
 12
13.081223
 22
47.850047
 13
13.081223
 23
47.850047
  0
SOLID
  8
14
  6
CONTINUOUS
 10
13.081223
 20
47.850047
 11
14.781223
 21
47.350047
 12
14.781223
 22
47.850047
 13
14.781223
 23
47.850047
  0
SOLID
  8
14
  6
CONTINUOUS
 10
13.081223
 20
47.850047
 11
14.781223
 21
47.850047
 12
14.781223
 22
47.850047
 13
14.781223
 23
47.850047
  0
SOLID
  8
14
  6
CONTINUOUS
 10
13.081223
 20
47.850047
 11
14.781223
 21
47.850047
 12
13.081223
 22
47.850047
 13
13.081223
 23
47.850047
  0
SOLID
  8
14
  6
CONTINUOUS
 10
22.842088
 20
45.350047
 11
23.382088
 21
45.350047
 12
23.382088
 22
47.850047
 13
23.382088
 23
47.850047
  0
SOLID
  8
14
  6
CONTINUOUS
 10
22.842088
 20
45.350047
 11
23.382088
 21
47.850047
 12
23.382088
 22
47.850047
 13
23.382088
 23
47.850047
  0
SOLID
  8
14
  6
CONTINUOUS
 10
22.842088
 20
45.350047
 11
23.382088
 21
47.850047
 12
22.842088
 22
45.350047
 13
22.842088
 23
45.350047
  0
SOLID
  8
14
  6
CONTINUOUS
 10
22.842088
 20
45.350047
 11
23.382088
 21
47.850047
 12
22.842088
 22
47.850047
 13
22.842088
 23
47.850047
  0
SOLID
  8
14
  6
CONTINUOUS
 10
22.842088
 20
45.350047
 11
22.842088
 21
47.850047
 12
22.842088
 22
47.850047
 13
22.842088
 23
47.850047
  0
SOLID
  8
14
  6
CONTINUOUS
 10
22.842088
 20
45.350047
 11
22.842088
 21
47.850047
 12
22.842088
 22
45.350047
 13
22.842088
 23
45.350047
  0
SOLID
  8
14
  6
CONTINUOUS
 10
76.440512
 20
45.350047
 11
76.980512
 21
45.350047
 12
76.980512
 22
47.850047
 13
76.980512
 23
47.850047
  0
SOLID
  8
14
  6
CONTINUOUS
 10
76.440512
 20
45.350047
 11
76.980512
 21
47.850047
 12
76.980512
 22
47.850047
 13
76.980512
 23
47.850047
  0
SOLID
  8
14
  6
CONTINUOUS
 10
76.440512
 20
45.350047
 11
76.980512
 21
47.850047
 12
76.440512
 22
45.350047
 13
76.440512
 23
45.350047
  0
SOLID
  8
14
  6
CONTINUOUS
 10
76.440512
 20
45.350047
 11
76.980512
 21
47.850047
 12
76.440512
 22
47.850047
 13
76.440512
 23
47.850047
  0
SOLID
  8
14
  6
CONTINUOUS
 10
76.440512
 20
45.350047
 11
76.440512
 21
47.850047
 12
76.440512
 22
47.850047
 13
76.440512
 23
47.850047
  0
SOLID
  8
14
  6
CONTINUOUS
 10
76.440512
 20
45.350047
 11
76.440512
 21
47.850047
 12
76.440512
 22
45.350047
 13
76.440512
 23
45.350047
  0
SOLID
  8
14
  6
CONTINUOUS
 10
86.741377
 20
47.350047
 11
86.741377
 21
47.850047
 12
85.041377
 22
47.850047
 13
85.041377
 23
47.850047
  0
SOLID
  8
14
  6
CONTINUOUS
 10
86.741377
 20
47.350047
 11
85.041377
 21
47.850047
 12
85.041377
 22
47.850047
 13
85.041377
 23
47.850047
  0
SOLID
  8
14
  6
CONTINUOUS
 10
86.741377
 20
47.350047
 11
85.041377
 21
47.850047
 12
86.741377
 22
47.350047
 13
86.741377
 23
47.350047
  0
SOLID
  8
14
  6
CONTINUOUS
 10
86.741377
 20
47.350047
 11
85.041377
 21
47.850047
 12
85.041377
 22
47.350047
 13
85.041377
 23
47.350047
  0
SOLID
  8
14
  6
CONTINUOUS
 10
86.741377
 20
47.350047
 11
85.041377
 21
47.350047
 12
85.041377
 22
47.350047
 13
85.041377
 23
47.350047
  0
SOLID
  8
14
  6
CONTINUOUS
 10
86.741377
 20
47.350047
 11
85.041377
 21
47.350047
 12
86.741377
 22
47.350047
 13
86.741377
 23
47.350047
  0
SOLID
  8
14
  6
CONTINUOUS
 10
34.111300
 20
46.050047
 11
33.611300
 21
46.050047
 12
33.611300
 22
44.250047
 13
33.611300
 23
44.250047
  0
SOLID
  8
14
  6
CONTINUOUS
 10
34.111300
 20
46.050047
 11
33.611300
 21
44.250047
 12
33.611300
 22
44.250047
 13
33.611300
 23
44.250047
  0
SOLID
  8
14
  6
CONTINUOUS
 10
34.111300
 20
46.050047
 11
33.611300
 21
44.250047
 12
34.111300
 22
46.050047
 13
34.111300
 23
46.050047
  0
SOLID
  8
14
  6
CONTINUOUS
 10
34.111300
 20
46.050047
 11
33.611300
 21
44.250047
 12
34.111300
 22
44.250047
 13
34.111300
 23
44.250047
  0
SOLID
  8
14
  6
CONTINUOUS
 10
34.111300
 20
46.050047
 11
34.111300
 21
44.250047
 12
34.111300
 22
44.250047
 13
34.111300
 23
44.250047
  0
SOLID
  8
14
  6
CONTINUOUS
 10
34.111300
 20
46.050047
 11
34.111300
 21
44.250047
 12
34.111300
 22
46.050047
 13
34.111300
 23
46.050047
  0
SOLID
  8
14
  6
CONTINUOUS
 10
65.711300
 20
44.250047
 11
66.211300
 21
44.250047
 12
66.211300
 22
46.050047
 13
66.211300
 23
46.050047
  0
SOLID
  8
14
  6
CONTINUOUS
 10
65.711300
 20
44.250047
 11
66.211300
 21
46.050047
 12
66.211300
 22
46.050047
 13
66.211300
 23
46.050047
  0
SOLID
  8
14
  6
CONTINUOUS
 10
65.711300
 20
44.250047
 11
66.211300
 21
46.050047
 12
65.711300
 22
44.250047
 13
65.711300
 23
44.250047
  0
SOLID
  8
14
  6
CONTINUOUS
 10
65.711300
 20
44.250047
 11
66.211300
 21
46.050047
 12
65.711300
 22
46.050047
 13
65.711300
 23
46.050047
  0
SOLID
  8
14
  6
CONTINUOUS
 10
65.711300
 20
44.250047
 11
65.711300
 21
46.050047
 12
65.711300
 22
46.050047
 13
65.711300
 23
46.050047
  0
SOLID
  8
14
  6
CONTINUOUS
 10
65.711300
 20
44.250047
 11
65.711300
 21
46.050047
 12
65.711300
 22
44.250047
 13
65.711300
 23
44.250047
  0
SOLID
  8
14
  6
CONTINUOUS
 10
10.284950
 20
40.150047
 11
10.284950
 21
39.650047
 12
11.684950
 22
39.650047
 13
11.684950
 23
39.650047
  0
SOLID
  8
14
  6
CONTINUOUS
 10
10.284950
 20
40.150047
 11
11.684950
 21
39.650047
 12
11.684950
 22
39.650047
 13
11.684950
 23
39.650047
  0
SOLID
  8
14
  6
CONTINUOUS
 10
10.284950
 20
40.150047
 11
11.684950
 21
39.650047
 12
10.284950
 22
40.150047
 13
10.284950
 23
40.150047
  0
SOLID
  8
14
  6
CONTINUOUS
 10
10.284950
 20
40.150047
 11
11.684950
 21
39.650047
 12
11.684950
 22
40.150047
 13
11.684950
 23
40.150047
  0
SOLID
  8
14
  6
CONTINUOUS
 10
10.284950
 20
40.150047
 11
11.684950
 21
40.150047
 12
11.684950
 22
40.150047
 13
11.684950
 23
40.150047
  0
SOLID
  8
14
  6
CONTINUOUS
 10
10.284950
 20
40.150047
 11
11.684950
 21
40.150047
 12
10.284950
 22
40.150047
 13
10.284950
 23
40.150047
  0
SOLID
  8
14
  6
CONTINUOUS
 10
89.537650
 20
39.650047
 11
89.537650
 21
40.150047
 12
88.137650
 22
40.150047
 13
88.137650
 23
40.150047
  0
SOLID
  8
14
  6
CONTINUOUS
 10
89.537650
 20
39.650047
 11
88.137650
 21
40.150047
 12
88.137650
 22
40.150047
 13
88.137650
 23
40.150047
  0
SOLID
  8
14
  6
CONTINUOUS
 10
89.537650
 20
39.650047
 11
88.137650
 21
40.150047
 12
89.537650
 22
39.650047
 13
89.537650
 23
39.650047
  0
SOLID
  8
14
  6
CONTINUOUS
 10
89.537650
 20
39.650047
 11
88.137650
 21
40.150047
 12
88.137650
 22
39.650047
 13
88.137650
 23
39.650047
  0
SOLID
  8
14
  6
CONTINUOUS
 10
89.537650
 20
39.650047
 11
88.137650
 21
39.650047
 12
88.137650
 22
39.650047
 13
88.137650
 23
39.650047
  0
SOLID
  8
14
  6
CONTINUOUS
 10
89.537650
 20
39.650047
 11
88.137650
 21
39.650047
 12
89.537650
 22
39.650047
 13
89.537650
 23
39.650047
  0
SOLID
  8
14
  6
CONTINUOUS
 10
22.165549
 20
37.850047
 11
22.665549
 21
37.850047
 12
22.665549
 22
40.050047
 13
22.665549
 23
40.050047
  0
SOLID
  8
14
  6
CONTINUOUS
 10
22.165549
 20
37.850047
 11
22.665549
 21
40.050047
 12
22.665549
 22
40.050047
 13
22.665549
 23
40.050047
  0
SOLID
  8
14
  6
CONTINUOUS
 10
22.165549
 20
37.850047
 11
22.665549
 21
40.050047
 12
22.165549
 22
37.850047
 13
22.165549
 23
37.850047
  0
SOLID
  8
14
  6
CONTINUOUS
 10
22.165549
 20
37.850047
 11
22.665549
 21
40.050047
 12
22.165549
 22
40.050047
 13
22.165549
 23
40.050047
  0
SOLID
  8
14
  6
CONTINUOUS
 10
22.165549
 20
37.850047
 11
22.165549
 21
40.050047
 12
22.165549
 22
40.050047
 13
22.165549
 23
40.050047
  0
SOLID
  8
14
  6
CONTINUOUS
 10
22.165549
 20
37.850047
 11
22.165549
 21
40.050047
 12
22.165549
 22
37.850047
 13
22.165549
 23
37.850047
  0
SOLID
  8
14
  6
CONTINUOUS
 10
77.157051
 20
37.850047
 11
77.657051
 21
37.850047
 12
77.657051
 22
40.050047
 13
77.657051
 23
40.050047
  0
SOLID
  8
14
  6
CONTINUOUS
 10
77.157051
 20
37.850047
 11
77.657051
 21
40.050047
 12
77.657051
 22
40.050047
 13
77.657051
 23
40.050047
  0
SOLID
  8
14
  6
CONTINUOUS
 10
77.157051
 20
37.850047
 11
77.657051
 21
40.050047
 12
77.157051
 22
37.850047
 13
77.157051
 23
37.850047
  0
SOLID
  8
14
  6
CONTINUOUS
 10
77.157051
 20
37.850047
 11
77.657051
 21
40.050047
 12
77.157051
 22
40.050047
 13
77.157051
 23
40.050047
  0
SOLID
  8
14
  6
CONTINUOUS
 10
77.157051
 20
37.850047
 11
77.157051
 21
40.050047
 12
77.157051
 22
40.050047
 13
77.157051
 23
40.050047
  0
SOLID
  8
14
  6
CONTINUOUS
 10
77.157051
 20
37.850047
 11
77.157051
 21
40.050047
 12
77.157051
 22
37.850047
 13
77.157051
 23
37.850047
  0
SOLID
  8
14
  6
CONTINUOUS
 10
16.065549
 20
33.850047
 11
16.065549
 21
34.350047
 12
14.465549
 22
34.350047
 13
14.465549
 23
34.350047
  0
SOLID
  8
14
  6
CONTINUOUS
 10
16.065549
 20
33.850047
 11
14.465549
 21
34.350047
 12
14.465549
 22
34.350047
 13
14.465549
 23
34.350047
  0
SOLID
  8
14
  6
CONTINUOUS
 10
16.065549
 20
33.850047
 11
14.465549
 21
34.350047
 12
16.065549
 22
33.850047
 13
16.065549
 23
33.850047
  0
SOLID
  8
14
  6
CONTINUOUS
 10
16.065549
 20
33.850047
 11
14.465549
 21
34.350047
 12
14.465549
 22
33.850047
 13
14.465549
 23
33.850047
  0
SOLID
  8
14
  6
CONTINUOUS
 10
16.065549
 20
33.850047
 11
14.465549
 21
33.850047
 12
14.465549
 22
33.850047
 13
14.465549
 23
33.850047
  0
SOLID
  8
14
  6
CONTINUOUS
 10
16.065549
 20
33.850047
 11
14.465549
 21
33.850047
 12
16.065549
 22
33.850047
 13
16.065549
 23
33.850047
  0
SOLID
  8
14
  6
CONTINUOUS
 10
29.911300
 20
33.630047
 11
29.911300
 21
34.230047
 12
27.511300
 22
34.230047
 13
27.511300
 23
34.230047
  0
SOLID
  8
14
  6
CONTINUOUS
 10
29.911300
 20
33.630047
 11
27.511300
 21
34.230047
 12
27.511300
 22
34.230047
 13
27.511300
 23
34.230047
  0
SOLID
  8
14
  6
CONTINUOUS
 10
29.911300
 20
33.630047
 11
27.511300
 21
34.230047
 12
29.911300
 22
33.630047
 13
29.911300
 23
33.630047
  0
SOLID
  8
14
  6
CONTINUOUS
 10
29.911300
 20
33.630047
 11
27.511300
 21
34.230047
 12
27.511300
 22
33.630047
 13
27.511300
 23
33.630047
  0
SOLID
  8
14
  6
CONTINUOUS
 10
29.911300
 20
33.630047
 11
27.511300
 21
33.630047
 12
27.511300
 22
33.630047
 13
27.511300
 23
33.630047
  0
SOLID
  8
14
  6
CONTINUOUS
 10
29.911300
 20
33.630047
 11
27.511300
 21
33.630047
 12
29.911300
 22
33.630047
 13
29.911300
 23
33.630047
  0
SOLID
  8
14
  6
CONTINUOUS
 10
69.931300
 20
34.230047
 11
69.931300
 21
33.630047
 12
72.331300
 22
33.630047
 13
72.331300
 23
33.630047
  0
SOLID
  8
14
  6
CONTINUOUS
 10
69.931300
 20
34.230047
 11
72.331300
 21
33.630047
 12
72.331300
 22
33.630047
 13
72.331300
 23
33.630047
  0
SOLID
  8
14
  6
CONTINUOUS
 10
69.931300
 20
34.230047
 11
72.331300
 21
33.630047
 12
69.931300
 22
34.230047
 13
69.931300
 23
34.230047
  0
SOLID
  8
14
  6
CONTINUOUS
 10
69.931300
 20
34.230047
 11
72.331300
 21
33.630047
 12
72.331300
 22
34.230047
 13
72.331300
 23
34.230047
  0
SOLID
  8
14
  6
CONTINUOUS
 10
69.931300
 20
34.230047
 11
72.331300
 21
34.230047
 12
72.331300
 22
34.230047
 13
72.331300
 23
34.230047
  0
SOLID
  8
14
  6
CONTINUOUS
 10
69.931300
 20
34.230047
 11
72.331300
 21
34.230047
 12
69.931300
 22
34.230047
 13
69.931300
 23
34.230047
  0
SOLID
  8
14
  6
CONTINUOUS
 10
85.357052
 20
33.850047
 11
85.357052
 21
34.350047
 12
83.757052
 22
34.350047
 13
83.757052
 23
34.350047
  0
SOLID
  8
14
  6
CONTINUOUS
 10
85.357052
 20
33.850047
 11
83.757052
 21
34.350047
 12
83.757052
 22
34.350047
 13
83.757052
 23
34.350047
  0
SOLID
  8
14
  6
CONTINUOUS
 10
85.357052
 20
33.850047
 11
83.757052
 21
34.350047
 12
85.357052
 22
33.850047
 13
85.357052
 23
33.850047
  0
SOLID
  8
14
  6
CONTINUOUS
 10
85.357052
 20
33.850047
 11
83.757052
 21
34.350047
 12
83.757052
 22
33.850047
 13
83.757052
 23
33.850047
  0
SOLID
  8
14
  6
CONTINUOUS
 10
85.357052
 20
33.850047
 11
83.757052
 21
33.850047
 12
83.757052
 22
33.850047
 13
83.757052
 23
33.850047
  0
SOLID
  8
14
  6
CONTINUOUS
 10
85.357052
 20
33.850047
 11
83.757052
 21
33.850047
 12
85.357052
 22
33.850047
 13
85.357052
 23
33.850047
  0
SOLID
  8
14
  6
CONTINUOUS
 10
41.611300
 20
33.374480
 11
41.111300
 21
33.374480
 12
41.111300
 22
31.774480
 13
41.111300
 23
31.774480
  0
SOLID
  8
14
  6
CONTINUOUS
 10
41.611300
 20
33.374480
 11
41.111300
 21
31.774480
 12
41.111300
 22
31.774480
 13
41.111300
 23
31.774480
  0
SOLID
  8
14
  6
CONTINUOUS
 10
41.611300
 20
33.374480
 11
41.111300
 21
31.774480
 12
41.611300
 22
33.374480
 13
41.611300
 23
33.374480
  0
SOLID
  8
14
  6
CONTINUOUS
 10
41.611300
 20
33.374480
 11
41.111300
 21
31.774480
 12
41.611300
 22
31.774480
 13
41.611300
 23
31.774480
  0
SOLID
  8
14
  6
CONTINUOUS
 10
41.611300
 20
33.374480
 11
41.611300
 21
31.774480
 12
41.611300
 22
31.774480
 13
41.611300
 23
31.774480
  0
SOLID
  8
14
  6
CONTINUOUS
 10
41.611300
 20
33.374480
 11
41.611300
 21
31.774480
 12
41.611300
 22
33.374480
 13
41.611300
 23
33.374480
  0
SOLID
  8
14
  6
CONTINUOUS
 10
52.951300
 20
32.874480
 11
52.951300
 21
33.374480
 12
51.351300
 22
33.374480
 13
51.351300
 23
33.374480
  0
SOLID
  8
14
  6
CONTINUOUS
 10
52.951300
 20
32.874480
 11
51.351300
 21
33.374480
 12
51.351300
 22
33.374480
 13
51.351300
 23
33.374480
  0
SOLID
  8
14
  6
CONTINUOUS
 10
52.951300
 20
32.874480
 11
51.351300
 21
33.374480
 12
52.951300
 22
32.874480
 13
52.951300
 23
32.874480
  0
SOLID
  8
14
  6
CONTINUOUS
 10
52.951300
 20
32.874480
 11
51.351300
 21
33.374480
 12
51.351300
 22
32.874480
 13
51.351300
 23
32.874480
  0
SOLID
  8
14
  6
CONTINUOUS
 10
52.951300
 20
32.874480
 11
51.351300
 21
32.874480
 12
51.351300
 22
32.874480
 13
51.351300
 23
32.874480
  0
SOLID
  8
14
  6
CONTINUOUS
 10
52.951300
 20
32.874480
 11
51.351300
 21
32.874480
 12
52.951300
 22
32.874480
 13
52.951300
 23
32.874480
  0
SOLID
  8
14
  6
CONTINUOUS
 10
36.711300
 20
26.974480
 11
37.211300
 21
26.974480
 12
37.211300
 22
32.574480
 13
37.211300
 23
32.574480
  0
SOLID
  8
14
  6
CONTINUOUS
 10
36.711300
 20
26.974480
 11
37.211300
 21
32.574480
 12
37.211300
 22
32.574480
 13
37.211300
 23
32.574480
  0
SOLID
  8
14
  6
CONTINUOUS
 10
36.711300
 20
26.974480
 11
37.211300
 21
32.574480
 12
36.711300
 22
26.974480
 13
36.711300
 23
26.974480
  0
SOLID
  8
14
  6
CONTINUOUS
 10
36.711300
 20
26.974480
 11
37.211300
 21
32.574480
 12
36.711300
 22
32.574480
 13
36.711300
 23
32.574480
  0
SOLID
  8
14
  6
CONTINUOUS
 10
36.711300
 20
26.974480
 11
36.711300
 21
32.574480
 12
36.711300
 22
32.574480
 13
36.711300
 23
32.574480
  0
SOLID
  8
14
  6
CONTINUOUS
 10
36.711300
 20
26.974480
 11
36.711300
 21
32.574480
 12
36.711300
 22
26.974480
 13
36.711300
 23
26.974480
  0
SOLID
  8
14
  6
CONTINUOUS
 10
62.611300
 20
26.974480
 11
63.111300
 21
26.974480
 12
63.111300
 22
32.574480
 13
63.111300
 23
32.574480
  0
SOLID
  8
14
  6
CONTINUOUS
 10
62.611300
 20
26.974480
 11
63.111300
 21
32.574480
 12
63.111300
 22
32.574480
 13
63.111300
 23
32.574480
  0
SOLID
  8
14
  6
CONTINUOUS
 10
62.611300
 20
26.974480
 11
63.111300
 21
32.574480
 12
62.611300
 22
26.974480
 13
62.611300
 23
26.974480
  0
SOLID
  8
14
  6
CONTINUOUS
 10
62.611300
 20
26.974480
 11
63.111300
 21
32.574480
 12
62.611300
 22
32.574480
 13
62.611300
 23
32.574480
  0
SOLID
  8
14
  6
CONTINUOUS
 10
62.611300
 20
26.974480
 11
62.611300
 21
32.574480
 12
62.611300
 22
32.574480
 13
62.611300
 23
32.574480
  0
SOLID
  8
14
  6
CONTINUOUS
 10
62.611300
 20
26.974480
 11
62.611300
 21
32.574480
 12
62.611300
 22
26.974480
 13
62.611300
 23
26.974480
  0
SOLID
  8
14
  6
CONTINUOUS
 10
43.511300
 20
26.974480
 11
43.511300
 21
27.474480
 12
41.111300
 22
27.474480
 13
41.111300
 23
27.474480
  0
SOLID
  8
14
  6
CONTINUOUS
 10
43.511300
 20
26.974480
 11
41.111300
 21
27.474480
 12
41.111300
 22
27.474480
 13
41.111300
 23
27.474480
  0
SOLID
  8
14
  6
CONTINUOUS
 10
43.511300
 20
26.974480
 11
41.111300
 21
27.474480
 12
43.511300
 22
26.974480
 13
43.511300
 23
26.974480
  0
SOLID
  8
14
  6
CONTINUOUS
 10
43.511300
 20
26.974480
 11
41.111300
 21
27.474480
 12
41.111300
 22
26.974480
 13
41.111300
 23
26.974480
  0
SOLID
  8
14
  6
CONTINUOUS
 10
43.511300
 20
26.974480
 11
41.111300
 21
26.974480
 12
41.111300
 22
26.974480
 13
41.111300
 23
26.974480
  0
SOLID
  8
14
  6
CONTINUOUS
 10
43.511300
 20
26.974480
 11
41.111300
 21
26.974480
 12
43.511300
 22
26.974480
 13
43.511300
 23
26.974480
  0
SOLID
  8
14
  6
CONTINUOUS
 10
53.371300
 20
27.514480
 11
53.371300
 21
26.974480
 12
55.771300
 22
26.974480
 13
55.771300
 23
26.974480
  0
SOLID
  8
14
  6
CONTINUOUS
 10
53.371300
 20
27.514480
 11
55.771300
 21
26.974480
 12
55.771300
 22
26.974480
 13
55.771300
 23
26.974480
  0
SOLID
  8
14
  6
CONTINUOUS
 10
53.371300
 20
27.514480
 11
55.771300
 21
26.974480
 12
53.371300
 22
27.514480
 13
53.371300
 23
27.514480
  0
SOLID
  8
14
  6
CONTINUOUS
 10
53.371300
 20
27.514480
 11
55.771300
 21
26.974480
 12
55.771300
 22
27.514480
 13
55.771300
 23
27.514480
  0
SOLID
  8
14
  6
CONTINUOUS
 10
53.371300
 20
27.514480
 11
55.771300
 21
27.514480
 12
55.771300
 22
27.514480
 13
55.771300
 23
27.514480
  0
SOLID
  8
14
  6
CONTINUOUS
 10
53.371300
 20
27.514480
 11
55.771300
 21
27.514480
 12
53.371300
 22
27.514480
 13
53.371300
 23
27.514480
  0
SOLID
  8
14
  6
CONTINUOUS
 10
28.311300
 20
22.374480
 11
28.911300
 21
22.374480
 12
28.911300
 22
24.374480
 13
28.911300
 23
24.374480
  0
SOLID
  8
14
  6
CONTINUOUS
 10
28.311300
 20
22.374480
 11
28.911300
 21
24.374480
 12
28.911300
 22
24.374480
 13
28.911300
 23
24.374480
  0
SOLID
  8
14
  6
CONTINUOUS
 10
28.311300
 20
22.374480
 11
28.911300
 21
24.374480
 12
28.311300
 22
22.374480
 13
28.311300
 23
22.374480
  0
SOLID
  8
14
  6
CONTINUOUS
 10
28.311300
 20
22.374480
 11
28.911300
 21
24.374480
 12
28.311300
 22
24.374480
 13
28.311300
 23
24.374480
  0
SOLID
  8
14
  6
CONTINUOUS
 10
28.311300
 20
22.374480
 11
28.311300
 21
24.374480
 12
28.311300
 22
24.374480
 13
28.311300
 23
24.374480
  0
SOLID
  8
14
  6
CONTINUOUS
 10
28.311300
 20
22.374480
 11
28.311300
 21
24.374480
 12
28.311300
 22
22.374480
 13
28.311300
 23
22.374480
  0
SOLID
  8
14
  6
CONTINUOUS
 10
33.731300
 20
21.974480
 11
34.331300
 21
21.974480
 12
34.331300
 22
24.374480
 13
34.331300
 23
24.374480
  0
SOLID
  8
14
  6
CONTINUOUS
 10
33.731300
 20
21.974480
 11
34.331300
 21
24.374480
 12
34.331300
 22
24.374480
 13
34.331300
 23
24.374480
  0
SOLID
  8
14
  6
CONTINUOUS
 10
33.731300
 20
21.974480
 11
34.331300
 21
24.374480
 12
33.731300
 22
21.974480
 13
33.731300
 23
21.974480
  0
SOLID
  8
14
  6
CONTINUOUS
 10
33.731300
 20
21.974480
 11
34.331300
 21
24.374480
 12
33.731300
 22
24.374480
 13
33.731300
 23
24.374480
  0
SOLID
  8
14
  6
CONTINUOUS
 10
33.731300
 20
21.974480
 11
33.731300
 21
24.374480
 12
33.731300
 22
24.374480
 13
33.731300
 23
24.374480
  0
SOLID
  8
14
  6
CONTINUOUS
 10
33.731300
 20
21.974480
 11
33.731300
 21
24.374480
 12
33.731300
 22
21.974480
 13
33.731300
 23
21.974480
  0
SOLID
  8
14
  6
CONTINUOUS
 10
65.491300
 20
21.974480
 11
66.091300
 21
21.974480
 12
66.091300
 22
24.374480
 13
66.091300
 23
24.374480
  0
SOLID
  8
14
  6
CONTINUOUS
 10
65.491300
 20
21.974480
 11
66.091300
 21
24.374480
 12
66.091300
 22
24.374480
 13
66.091300
 23
24.374480
  0
SOLID
  8
14
  6
CONTINUOUS
 10
65.491300
 20
21.974480
 11
66.091300
 21
24.374480
 12
65.491300
 22
21.974480
 13
65.491300
 23
21.974480
  0
SOLID
  8
14
  6
CONTINUOUS
 10
65.491300
 20
21.974480
 11
66.091300
 21
24.374480
 12
65.491300
 22
24.374480
 13
65.491300
 23
24.374480
  0
SOLID
  8
14
  6
CONTINUOUS
 10
65.491300
 20
21.974480
 11
65.491300
 21
24.374480
 12
65.491300
 22
24.374480
 13
65.491300
 23
24.374480
  0
SOLID
  8
14
  6
CONTINUOUS
 10
65.491300
 20
21.974480
 11
65.491300
 21
24.374480
 12
65.491300
 22
21.974480
 13
65.491300
 23
21.974480
  0
SOLID
  8
14
  6
CONTINUOUS
 10
70.911300
 20
22.374480
 11
71.511300
 21
22.374480
 12
71.511300
 22
24.374480
 13
71.511300
 23
24.374480
  0
SOLID
  8
14
  6
CONTINUOUS
 10
70.911300
 20
22.374480
 11
71.511300
 21
24.374480
 12
71.511300
 22
24.374480
 13
71.511300
 23
24.374480
  0
SOLID
  8
14
  6
CONTINUOUS
 10
70.911300
 20
22.374480
 11
71.511300
 21
24.374480
 12
70.911300
 22
22.374480
 13
70.911300
 23
22.374480
  0
SOLID
  8
14
  6
CONTINUOUS
 10
70.911300
 20
22.374480
 11
71.511300
 21
24.374480
 12
70.911300
 22
24.374480
 13
70.911300
 23
24.374480
  0
SOLID
  8
14
  6
CONTINUOUS
 10
70.911300
 20
22.374480
 11
70.911300
 21
24.374480
 12
70.911300
 22
24.374480
 13
70.911300
 23
24.374480
  0
SOLID
  8
14
  6
CONTINUOUS
 10
70.911300
 20
22.374480
 11
70.911300
 21
24.374480
 12
70.911300
 22
22.374480
 13
70.911300
 23
22.374480
  0
SOLID
  8
14
  6
CONTINUOUS
 10
18.711300
 20
19.450047
 11
18.711300
 21
18.850047
 12
20.311300
 22
18.850047
 13
20.311300
 23
18.850047
  0
SOLID
  8
14
  6
CONTINUOUS
 10
18.711300
 20
19.450047
 11
20.311300
 21
18.850047
 12
20.311300
 22
18.850047
 13
20.311300
 23
18.850047
  0
SOLID
  8
14
  6
CONTINUOUS
 10
18.711300
 20
19.450047
 11
20.311300
 21
18.850047
 12
18.711300
 22
19.450047
 13
18.711300
 23
19.450047
  0
SOLID
  8
14
  6
CONTINUOUS
 10
18.711300
 20
19.450047
 11
20.311300
 21
18.850047
 12
20.311300
 22
19.450047
 13
20.311300
 23
19.450047
  0
SOLID
  8
14
  6
CONTINUOUS
 10
18.711300
 20
19.450047
 11
20.311300
 21
19.450047
 12
20.311300
 22
19.450047
 13
20.311300
 23
19.450047
  0
SOLID
  8
14
  6
CONTINUOUS
 10
18.711300
 20
19.450047
 11
20.311300
 21
19.450047
 12
18.711300
 22
19.450047
 13
18.711300
 23
19.450047
  0
SOLID
  8
14
  6
CONTINUOUS
 10
46.711300
 20
18.444480
 11
46.711300
 21
19.044480
 12
44.311300
 22
19.044480
 13
44.311300
 23
19.044480
  0
SOLID
  8
14
  6
CONTINUOUS
 10
46.711300
 20
18.444480
 11
44.311300
 21
19.044480
 12
44.311300
 22
19.044480
 13
44.311300
 23
19.044480
  0
SOLID
  8
14
  6
CONTINUOUS
 10
46.711300
 20
18.444480
 11
44.311300
 21
19.044480
 12
46.711300
 22
18.444480
 13
46.711300
 23
18.444480
  0
SOLID
  8
14
  6
CONTINUOUS
 10
46.711300
 20
18.444480
 11
44.311300
 21
19.044480
 12
44.311300
 22
18.444480
 13
44.311300
 23
18.444480
  0
SOLID
  8
14
  6
CONTINUOUS
 10
46.711300
 20
18.444480
 11
44.311300
 21
18.444480
 12
44.311300
 22
18.444480
 13
44.311300
 23
18.444480
  0
SOLID
  8
14
  6
CONTINUOUS
 10
46.711300
 20
18.444480
 11
44.311300
 21
18.444480
 12
46.711300
 22
18.444480
 13
46.711300
 23
18.444480
  0
SOLID
  8
14
  6
CONTINUOUS
 10
55.511300
 20
18.444480
 11
55.511300
 21
19.044480
 12
53.111300
 22
19.044480
 13
53.111300
 23
19.044480
  0
SOLID
  8
14
  6
CONTINUOUS
 10
55.511300
 20
18.444480
 11
53.111300
 21
19.044480
 12
53.111300
 22
19.044480
 13
53.111300
 23
19.044480
  0
SOLID
  8
14
  6
CONTINUOUS
 10
55.511300
 20
18.444480
 11
53.111300
 21
19.044480
 12
55.511300
 22
18.444480
 13
55.511300
 23
18.444480
  0
SOLID
  8
14
  6
CONTINUOUS
 10
55.511300
 20
18.444480
 11
53.111300
 21
19.044480
 12
53.111300
 22
18.444480
 13
53.111300
 23
18.444480
  0
SOLID
  8
14
  6
CONTINUOUS
 10
55.511300
 20
18.444480
 11
53.111300
 21
18.444480
 12
53.111300
 22
18.444480
 13
53.111300
 23
18.444480
  0
SOLID
  8
14
  6
CONTINUOUS
 10
55.511300
 20
18.444480
 11
53.111300
 21
18.444480
 12
55.511300
 22
18.444480
 13
55.511300
 23
18.444480
  0
SOLID
  8
14
  6
CONTINUOUS
 10
79.511300
 20
19.450047
 11
79.511300
 21
18.850047
 12
81.111300
 22
18.850047
 13
81.111300
 23
18.850047
  0
SOLID
  8
14
  6
CONTINUOUS
 10
79.511300
 20
19.450047
 11
81.111300
 21
18.850047
 12
81.111300
 22
18.850047
 13
81.111300
 23
18.850047
  0
SOLID
  8
14
  6
CONTINUOUS
 10
79.511300
 20
19.450047
 11
81.111300
 21
18.850047
 12
79.511300
 22
19.450047
 13
79.511300
 23
19.450047
  0
SOLID
  8
14
  6
CONTINUOUS
 10
79.511300
 20
19.450047
 11
81.111300
 21
18.850047
 12
81.111300
 22
19.450047
 13
81.111300
 23
19.450047
  0
SOLID
  8
14
  6
CONTINUOUS
 10
79.511300
 20
19.450047
 11
81.111300
 21
19.450047
 12
81.111300
 22
19.450047
 13
81.111300
 23
19.450047
  0
SOLID
  8
14
  6
CONTINUOUS
 10
79.511300
 20
19.450047
 11
81.111300
 21
19.450047
 12
79.511300
 22
19.450047
 13
79.511300
 23
19.450047
  0
SOLID
  8
14
  6
CONTINUOUS
 10
23.211300
 20
13.050047
 11
22.711300
 21
13.050047
 12
22.711300
 22
11.250047
 13
22.711300
 23
11.250047
  0
SOLID
  8
14
  6
CONTINUOUS
 10
23.211300
 20
13.050047
 11
22.711300
 21
11.250047
 12
22.711300
 22
11.250047
 13
22.711300
 23
11.250047
  0
SOLID
  8
14
  6
CONTINUOUS
 10
23.211300
 20
13.050047
 11
22.711300
 21
11.250047
 12
23.211300
 22
13.050047
 13
23.211300
 23
13.050047
  0
SOLID
  8
14
  6
CONTINUOUS
 10
23.211300
 20
13.050047
 11
22.711300
 21
11.250047
 12
23.211300
 22
11.250047
 13
23.211300
 23
11.250047
  0
SOLID
  8
14
  6
CONTINUOUS
 10
23.211300
 20
13.050047
 11
23.211300
 21
11.250047
 12
23.211300
 22
11.250047
 13
23.211300
 23
11.250047
  0
SOLID
  8
14
  6
CONTINUOUS
 10
23.211300
 20
13.050047
 11
23.211300
 21
11.250047
 12
23.211300
 22
13.050047
 13
23.211300
 23
13.050047
  0
SOLID
  8
14
  6
CONTINUOUS
 10
76.611300
 20
11.250047
 11
77.111300
 21
11.250047
 12
77.111300
 22
13.450047
 13
77.111300
 23
13.450047
  0
SOLID
  8
14
  6
CONTINUOUS
 10
76.611300
 20
11.250047
 11
77.111300
 21
13.450047
 12
77.111300
 22
13.450047
 13
77.111300
 23
13.450047
  0
SOLID
  8
14
  6
CONTINUOUS
 10
76.611300
 20
11.250047
 11
77.111300
 21
13.450047
 12
76.611300
 22
11.250047
 13
76.611300
 23
11.250047
  0
SOLID
  8
14
  6
CONTINUOUS
 10
76.611300
 20
11.250047
 11
77.111300
 21
13.450047
 12
76.611300
 22
13.450047
 13
76.611300
 23
13.450047
  0
SOLID
  8
14
  6
CONTINUOUS
 10
76.611300
 20
11.250047
 11
76.611300
 21
13.450047
 12
76.611300
 22
13.450047
 13
76.611300
 23
13.450047
  0
SOLID
  8
14
  6
CONTINUOUS
 10
76.611300
 20
11.250047
 11
76.611300
 21
13.450047
 12
76.611300
 22
11.250047
 13
76.611300
 23
11.250047
  0
SOLID
  8
14
  6
CONTINUOUS
 10
34.111300
 20
10.394480
 11
33.571300
 21
10.394480
 12
33.571300
 22
7.994480
 13
33.571300
 23
7.994480
  0
SOLID
  8
14
  6
CONTINUOUS
 10
34.111300
 20
10.394480
 11
33.571300
 21
7.994480
 12
33.571300
 22
7.994480
 13
33.571300
 23
7.994480
  0
SOLID
  8
14
  6
CONTINUOUS
 10
34.111300
 20
10.394480
 11
33.571300
 21
7.994480
 12
34.111300
 22
10.394480
 13
34.111300
 23
10.394480
  0
SOLID
  8
14
  6
CONTINUOUS
 10
34.111300
 20
10.394480
 11
33.571300
 21
7.994480
 12
34.111300
 22
7.994480
 13
34.111300
 23
7.994480
  0
SOLID
  8
14
  6
CONTINUOUS
 10
34.111300
 20
10.394480
 11
34.111300
 21
7.994480
 12
34.111300
 22
7.994480
 13
34.111300
 23
7.994480
  0
SOLID
  8
14
  6
CONTINUOUS
 10
34.111300
 20
10.394480
 11
34.111300
 21
7.994480
 12
34.111300
 22
10.394480
 13
34.111300
 23
10.394480
  0
SOLID
  8
14
  6
CONTINUOUS
 10
44.731300
 20
10.394480
 11
44.191300
 21
10.394480
 12
44.191300
 22
7.994480
 13
44.191300
 23
7.994480
  0
SOLID
  8
14
  6
CONTINUOUS
 10
44.731300
 20
10.394480
 11
44.191300
 21
7.994480
 12
44.191300
 22
7.994480
 13
44.191300
 23
7.994480
  0
SOLID
  8
14
  6
CONTINUOUS
 10
44.731300
 20
10.394480
 11
44.191300
 21
7.994480
 12
44.731300
 22
10.394480
 13
44.731300
 23
10.394480
  0
SOLID
  8
14
  6
CONTINUOUS
 10
44.731300
 20
10.394480
 11
44.191300
 21
7.994480
 12
44.731300
 22
7.994480
 13
44.731300
 23
7.994480
  0
SOLID
  8
14
  6
CONTINUOUS
 10
44.731300
 20
10.394480
 11
44.731300
 21
7.994480
 12
44.731300
 22
7.994480
 13
44.731300
 23
7.994480
  0
SOLID
  8
14
  6
CONTINUOUS
 10
44.731300
 20
10.394480
 11
44.731300
 21
7.994480
 12
44.731300
 22
10.394480
 13
44.731300
 23
10.394480
  0
SOLID
  8
14
  6
CONTINUOUS
 10
55.091300
 20
7.994480
 11
55.631300
 21
7.994480
 12
55.631300
 22
10.394480
 13
55.631300
 23
10.394480
  0
SOLID
  8
14
  6
CONTINUOUS
 10
55.091300
 20
7.994480
 11
55.631300
 21
10.394480
 12
55.631300
 22
10.394480
 13
55.631300
 23
10.394480
  0
SOLID
  8
14
  6
CONTINUOUS
 10
55.091300
 20
7.994480
 11
55.631300
 21
10.394480
 12
55.091300
 22
7.994480
 13
55.091300
 23
7.994480
  0
SOLID
  8
14
  6
CONTINUOUS
 10
55.091300
 20
7.994480
 11
55.631300
 21
10.394480
 12
55.091300
 22
10.394480
 13
55.091300
 23
10.394480
  0
SOLID
  8
14
  6
CONTINUOUS
 10
55.091300
 20
7.994480
 11
55.091300
 21
10.394480
 12
55.091300
 22
10.394480
 13
55.091300
 23
10.394480
  0
SOLID
  8
14
  6
CONTINUOUS
 10
55.091300
 20
7.994480
 11
55.091300
 21
10.394480
 12
55.091300
 22
7.994480
 13
55.091300
 23
7.994480
  0
SOLID
  8
14
  6
CONTINUOUS
 10
65.711300
 20
7.994480
 11
66.251300
 21
7.994480
 12
66.251300
 22
10.394480
 13
66.251300
 23
10.394480
  0
SOLID
  8
14
  6
CONTINUOUS
 10
65.711300
 20
7.994480
 11
66.251300
 21
10.394480
 12
66.251300
 22
10.394480
 13
66.251300
 23
10.394480
  0
SOLID
  8
14
  6
CONTINUOUS
 10
65.711300
 20
7.994480
 11
66.251300
 21
10.394480
 12
65.711300
 22
7.994480
 13
65.711300
 23
7.994480
  0
SOLID
  8
14
  6
CONTINUOUS
 10
65.711300
 20
7.994480
 11
66.251300
 21
10.394480
 12
65.711300
 22
10.394480
 13
65.711300
 23
10.394480
  0
SOLID
  8
14
  6
CONTINUOUS
 10
65.711300
 20
7.994480
 11
65.711300
 21
10.394480
 12
65.711300
 22
10.394480
 13
65.711300
 23
10.394480
  0
SOLID
  8
14
  6
CONTINUOUS
 10
65.711300
 20
7.994480
 11
65.711300
 21
10.394480
 12
65.711300
 22
7.994480
 13
65.711300
 23
7.994480
  0
LINE
  8
18
  6
CONTINUOUS
 10
14.781223
 20
47.850047
 11
22.842088
 21
47.850047
  0
LINE
  8
18
  6
CONTINUOUS
 10
14.781223
 20
47.470047
 11
22.842088
 21
47.470047
  0
LINE
  8
18
  6
CONTINUOUS
 10
76.980512
 20
47.850047
 11
85.041377
 21
47.850047
  0
LINE
  8
18
  6
CONTINUOUS
 10
76.980512
 20
47.470047
 11
85.041377
 21
47.470047
  0
LINE
  8
18
  6
CONTINUOUS
 10
23.382088
 20
46.050047
 11
29.511300
 21
46.050047
  0
LINE
  8
18
  6
CONTINUOUS
 10
23.382088
 20
45.670047
 11
29.511300
 21
45.670047
  0
LINE
  8
18
  6
CONTINUOUS
 10
29.891300
 20
46.050047
 11
33.611300
 21
46.050047
  0
LINE
  8
18
  6
CONTINUOUS
 10
29.891300
 20
45.670047
 11
33.611300
 21
45.670047
  0
LINE
  8
18
  6
CONTINUOUS
 10
29.511300
 20
46.050047
 11
29.891300
 21
46.050047
  0
LINE
  8
18
  6
CONTINUOUS
 10
29.511300
 20
45.670047
 11
29.891300
 21
45.670047
  0
LINE
  8
18
  6
CONTINUOUS
 10
66.211300
 20
46.050047
 11
69.931300
 21
46.050047
  0
LINE
  8
18
  6
CONTINUOUS
 10
66.211300
 20
45.670047
 11
69.931300
 21
45.670047
  0
LINE
  8
18
  6
CONTINUOUS
 10
70.311300
 20
46.050047
 11
76.440512
 21
46.050047
  0
LINE
  8
18
  6
CONTINUOUS
 10
70.311300
 20
45.670047
 11
76.440512
 21
45.670047
  0
LINE
  8
18
  6
CONTINUOUS
 10
69.931300
 20
46.050047
 11
70.311300
 21
46.050047
  0
LINE
  8
18
  6
CONTINUOUS
 10
69.931300
 20
45.670047
 11
70.311300
 21
45.670047
  0
LINE
  8
18
  6
CONTINUOUS
 10
11.684950
 20
40.030047
 11
14.465549
 21
40.030047
  0
LINE
  8
18
  6
CONTINUOUS
 10
11.684950
 20
39.650047
 11
14.465549
 21
39.650047
  0
LINE
  8
18
  6
CONTINUOUS
 10
14.845549
 20
40.030047
 11
22.165549
 21
40.030047
  0
LINE
  8
18
  6
CONTINUOUS
 10
14.845549
 20
39.650047
 11
22.165549
 21
39.650047
  0
LINE
  8
18
  6
CONTINUOUS
 10
14.465549
 20
40.030047
 11
14.845549
 21
40.030047
  0
LINE
  8
18
  6
CONTINUOUS
 10
14.465549
 20
39.650047
 11
14.845549
 21
39.650047
  0
LINE
  8
18
  6
CONTINUOUS
 10
77.657051
 20
40.030047
 11
84.977051
 21
40.030047
  0
LINE
  8
18
  6
CONTINUOUS
 10
77.657051
 20
39.650047
 11
84.977051
 21
39.650047
  0
LINE
  8
18
  6
CONTINUOUS
 10
85.357051
 20
40.030047
 11
88.137650
 21
40.030047
  0
LINE
  8
18
  6
CONTINUOUS
 10
85.357051
 20
39.650047
 11
88.137650
 21
39.650047
  0
LINE
  8
18
  6
CONTINUOUS
 10
84.977051
 20
40.030047
 11
85.357051
 21
40.030047
  0
LINE
  8
18
  6
CONTINUOUS
 10
84.977051
 20
39.650047
 11
85.357051
 21
39.650047
  0
LINE
  8
18
  6
CONTINUOUS
 10
29.891300
 20
36.650047
 11
33.731300
 21
36.650047
  0
LINE
  8
18
  6
CONTINUOUS
 10
29.891300
 20
36.270047
 11
33.731300
 21
36.270047
  0
LINE
  8
18
  6
CONTINUOUS
 10
34.111300
 20
36.650047
 11
36.711300
 21
36.650047
  0
LINE
  8
18
  6
CONTINUOUS
 10
34.111300
 20
36.270047
 11
36.711300
 21
36.270047
  0
LINE
  8
18
  6
CONTINUOUS
 10
29.511300
 20
36.650047
 11
29.891300
 21
36.650047
  0
LINE
  8
18
  6
CONTINUOUS
 10
29.511300
 20
36.270047
 11
29.891300
 21
36.270047
  0
LINE
  8
18
  6
CONTINUOUS
 10
33.731300
 20
36.650047
 11
34.111300
 21
36.650047
  0
LINE
  8
18
  6
CONTINUOUS
 10
33.731300
 20
36.270047
 11
34.111300
 21
36.270047
  0
LINE
  8
18
  6
CONTINUOUS
 10
36.711300
 20
36.650047
 11
37.151300
 21
36.650047
  0
LINE
  8
18
  6
CONTINUOUS
 10
36.711300
 20
36.270047
 11
37.151300
 21
36.270047
  0
LINE
  8
18
  6
CONTINUOUS
 10
63.111300
 20
36.650047
 11
65.711300
 21
36.650047
  0
LINE
  8
18
  6
CONTINUOUS
 10
63.111300
 20
36.270047
 11
65.711300
 21
36.270047
  0
LINE
  8
18
  6
CONTINUOUS
 10
66.091300
 20
36.650047
 11
69.931300
 21
36.650047
  0
LINE
  8
18
  6
CONTINUOUS
 10
66.091300
 20
36.270047
 11
69.931300
 21
36.270047
  0
LINE
  8
18
  6
CONTINUOUS
 10
62.671300
 20
36.650047
 11
63.111300
 21
36.650047
  0
LINE
  8
18
  6
CONTINUOUS
 10
62.671300
 20
36.270047
 11
63.111300
 21
36.270047
  0
LINE
  8
18
  6
CONTINUOUS
 10
65.711300
 20
36.650047
 11
66.091300
 21
36.650047
  0
LINE
  8
18
  6
CONTINUOUS
 10
65.711300
 20
36.270047
 11
66.091300
 21
36.270047
  0
LINE
  8
18
  6
CONTINUOUS
 10
69.931300
 20
36.650047
 11
70.311300
 21
36.650047
  0
LINE
  8
18
  6
CONTINUOUS
 10
69.931300
 20
36.270047
 11
70.311300
 21
36.270047
  0
LINE
  8
18
  6
CONTINUOUS
 10
16.065549
 20
34.230047
 11
18.711300
 21
34.230047
  0
LINE
  8
18
  6
CONTINUOUS
 10
16.065549
 20
33.850047
 11
18.711300
 21
33.850047
  0
LINE
  8
18
  6
CONTINUOUS
 10
19.091300
 20
34.230047
 11
22.285549
 21
34.230047
  0
LINE
  8
18
  6
CONTINUOUS
 10
19.091300
 20
33.850047
 11
22.285549
 21
33.850047
  0
LINE
  8
18
  6
CONTINUOUS
 10
22.665549
 20
34.230047
 11
27.511300
 21
34.230047
  0
LINE
  8
18
  6
CONTINUOUS
 10
22.665549
 20
33.850047
 11
27.511300
 21
33.850047
  0
LINE
  8
18
  6
CONTINUOUS
 10
29.911300
 20
34.230047
 11
33.731300
 21
34.230047
  0
LINE
  8
18
  6
CONTINUOUS
 10
29.911300
 20
33.850047
 11
33.731300
 21
33.850047
  0
LINE
  8
18
  6
CONTINUOUS
 10
34.111300
 20
34.230047
 11
36.711300
 21
34.230047
  0
LINE
  8
18
  6
CONTINUOUS
 10
34.111300
 20
33.850047
 11
36.711300
 21
33.850047
  0
LINE
  8
18
  6
CONTINUOUS
 10
18.711300
 20
34.230047
 11
19.091300
 21
34.230047
  0
LINE
  8
18
  6
CONTINUOUS
 10
18.711300
 20
33.850047
 11
19.091300
 21
33.850047
  0
LINE
  8
18
  6
CONTINUOUS
 10
22.285549
 20
34.230047
 11
22.665549
 21
34.230047
  0
LINE
  8
18
  6
CONTINUOUS
 10
22.285549
 20
33.850047
 11
22.665549
 21
33.850047
  0
LINE
  8
18
  6
CONTINUOUS
 10
33.731300
 20
34.230047
 11
34.111300
 21
34.230047
  0
LINE
  8
18
  6
CONTINUOUS
 10
33.731300
 20
33.850047
 11
34.111300
 21
33.850047
  0
LINE
  8
18
  6
CONTINUOUS
 10
36.711300
 20
34.230047
 11
37.151300
 21
34.230047
  0
LINE
  8
18
  6
CONTINUOUS
 10
36.711300
 20
33.850047
 11
37.151300
 21
33.850047
  0
LINE
  8
18
  6
CONTINUOUS
 10
63.111300
 20
34.230047
 11
65.711300
 21
34.230047
  0
LINE
  8
18
  6
CONTINUOUS
 10
63.111300
 20
33.850047
 11
65.711300
 21
33.850047
  0
LINE
  8
18
  6
CONTINUOUS
 10
66.091300
 20
34.230047
 11
69.931300
 21
34.230047
  0
LINE
  8
18
  6
CONTINUOUS
 10
66.091300
 20
33.850047
 11
69.931300
 21
33.850047
  0
LINE
  8
18
  6
CONTINUOUS
 10
72.331300
 20
34.230047
 11
77.157051
 21
34.230047
  0
LINE
  8
18
  6
CONTINUOUS
 10
72.331300
 20
33.850047
 11
77.157051
 21
33.850047
  0
LINE
  8
18
  6
CONTINUOUS
 10
77.537051
 20
34.230047
 11
80.731300
 21
34.230047
  0
LINE
  8
18
  6
CONTINUOUS
 10
77.537051
 20
33.850047
 11
80.731300
 21
33.850047
  0
LINE
  8
18
  6
CONTINUOUS
 10
81.111300
 20
34.230047
 11
83.757052
 21
34.230047
  0
LINE
  8
18
  6
CONTINUOUS
 10
81.111300
 20
33.850047
 11
83.757052
 21
33.850047
  0
LINE
  8
18
  6
CONTINUOUS
 10
62.671300
 20
34.230047
 11
63.111300
 21
34.230047
  0
LINE
  8
18
  6
CONTINUOUS
 10
62.671300
 20
33.850047
 11
63.111300
 21
33.850047
  0
LINE
  8
18
  6
CONTINUOUS
 10
65.711300
 20
34.230047
 11
66.091300
 21
34.230047
  0
LINE
  8
18
  6
CONTINUOUS
 10
65.711300
 20
33.850047
 11
66.091300
 21
33.850047
  0
LINE
  8
18
  6
CONTINUOUS
 10
77.157051
 20
34.230047
 11
77.537051
 21
34.230047
  0
LINE
  8
18
  6
CONTINUOUS
 10
77.157051
 20
33.850047
 11
77.537051
 21
33.850047
  0
LINE
  8
18
  6
CONTINUOUS
 10
80.731300
 20
34.230047
 11
81.111300
 21
34.230047
  0
LINE
  8
18
  6
CONTINUOUS
 10
80.731300
 20
33.850047
 11
81.111300
 21
33.850047
  0
LINE
  8
18
  6
CONTINUOUS
 10
41.611300
 20
33.374480
 11
49.711300
 21
33.374480
  0
LINE
  8
18
  6
CONTINUOUS
 10
41.611300
 20
32.934480
 11
49.711300
 21
32.934480
  0
LINE
  8
18
  6
CONTINUOUS
 10
50.091300
 20
33.374480
 11
51.351300
 21
33.374480
  0
LINE
  8
18
  6
CONTINUOUS
 10
50.091300
 20
32.934480
 11
51.351300
 21
32.934480
  0
LINE
  8
18
  6
CONTINUOUS
 10
49.711300
 20
33.374480
 11
50.091300
 21
33.374480
  0
LINE
  8
18
  6
CONTINUOUS
 10
49.711300
 20
32.934480
 11
50.091300
 21
32.934480
  0
LINE
  8
18
  6
CONTINUOUS
 10
37.211300
 20
32.574480
 11
41.111300
 21
32.574480
  0
LINE
  8
18
  6
CONTINUOUS
 10
37.211300
 20
32.194480
 11
41.111300
 21
32.194480
  0
LINE
  8
18
  6
CONTINUOUS
 10
52.951300
 20
32.574480
 11
55.671300
 21
32.574480
  0
LINE
  8
18
  6
CONTINUOUS
 10
52.951300
 20
32.194480
 11
55.671300
 21
32.194480
  0
LINE
  8
18
  6
CONTINUOUS
 10
55.671300
 20
32.574480
 11
58.311300
 21
32.574480
  0
LINE
  8
18
  6
CONTINUOUS
 10
55.671300
 20
32.194480
 11
58.311300
 21
32.194480
  0
LINE
  8
18
  6
CONTINUOUS
 10
58.691300
 20
32.574480
 11
62.611300
 21
32.574480
  0
LINE
  8
18
  6
CONTINUOUS
 10
58.691300
 20
32.194480
 11
62.611300
 21
32.194480
  0
LINE
  8
18
  6
CONTINUOUS
 10
52.451300
 20
32.574480
 11
52.951300
 21
32.574480
  0
LINE
  8
18
  6
CONTINUOUS
 10
52.451300
 20
32.194480
 11
52.951300
 21
32.194480
  0
LINE
  8
18
  6
CONTINUOUS
 10
58.311300
 20
32.574480
 11
58.691300
 21
32.574480
  0
LINE
  8
18
  6
CONTINUOUS
 10
58.311300
 20
32.194480
 11
58.691300
 21
32.194480
  0
LINE
  8
18
  6
CONTINUOUS
 10
37.211300
 20
27.414480
 11
41.111300
 21
27.414480
  0
LINE
  8
18
  6
CONTINUOUS
 10
37.211300
 20
26.974480
 11
41.111300
 21
26.974480
  0
LINE
  8
18
  6
CONTINUOUS
 10
43.511300
 20
27.414480
 11
44.311300
 21
27.414480
  0
LINE
  8
18
  6
CONTINUOUS
 10
43.511300
 20
26.974480
 11
44.311300
 21
26.974480
  0
LINE
  8
18
  6
CONTINUOUS
 10
44.691300
 20
27.414480
 11
46.911300
 21
27.414480
  0
LINE
  8
18
  6
CONTINUOUS
 10
44.691300
 20
26.974480
 11
46.911300
 21
26.974480
  0
LINE
  8
18
  6
CONTINUOUS
 10
46.911300
 20
27.414480
 11
49.711300
 21
27.414480
  0
LINE
  8
18
  6
CONTINUOUS
 10
46.911300
 20
26.974480
 11
49.711300
 21
26.974480
  0
LINE
  8
18
  6
CONTINUOUS
 10
50.091300
 20
27.414480
 11
52.451300
 21
27.414480
  0
LINE
  8
18
  6
CONTINUOUS
 10
50.091300
 20
26.974480
 11
52.451300
 21
26.974480
  0
LINE
  8
18
  6
CONTINUOUS
 10
52.951300
 20
27.414480
 11
53.371300
 21
27.414480
  0
LINE
  8
18
  6
CONTINUOUS
 10
52.951300
 20
26.974480
 11
53.371300
 21
26.974480
  0
LINE
  8
18
  6
CONTINUOUS
 10
55.771300
 20
27.414480
 11
58.311300
 21
27.414480
  0
LINE
  8
18
  6
CONTINUOUS
 10
55.771300
 20
26.974480
 11
58.311300
 21
26.974480
  0
LINE
  8
18
  6
CONTINUOUS
 10
58.691300
 20
27.414480
 11
62.611300
 21
27.414480
  0
LINE
  8
18
  6
CONTINUOUS
 10
58.691300
 20
26.974480
 11
62.611300
 21
26.974480
  0
LINE
  8
18
  6
CONTINUOUS
 10
44.311300
 20
27.414480
 11
44.691300
 21
27.414480
  0
LINE
  8
18
  6
CONTINUOUS
 10
44.311300
 20
26.974480
 11
44.691300
 21
26.974480
  0
LINE
  8
18
  6
CONTINUOUS
 10
49.711300
 20
27.414480
 11
50.091300
 21
27.414480
  0
LINE
  8
18
  6
CONTINUOUS
 10
49.711300
 20
26.974480
 11
50.091300
 21
26.974480
  0
LINE
  8
18
  6
CONTINUOUS
 10
52.451300
 20
27.414480
 11
52.951300
 21
27.414480
  0
LINE
  8
18
  6
CONTINUOUS
 10
52.451300
 20
26.974480
 11
52.951300
 21
26.974480
  0
LINE
  8
18
  6
CONTINUOUS
 10
58.311300
 20
27.414480
 11
58.691300
 21
27.414480
  0
LINE
  8
18
  6
CONTINUOUS
 10
58.311300
 20
26.974480
 11
58.691300
 21
26.974480
  0
LINE
  8
18
  6
CONTINUOUS
 10
19.091300
 20
25.650047
 11
26.311300
 21
25.650047
  0
LINE
  8
18
  6
CONTINUOUS
 10
19.091300
 20
25.270047
 11
26.200436
 21
25.270047
  0
LINE
  8
18
  6
CONTINUOUS
 10
26.311300
 20
25.650047
 11
28.311300
 21
24.374480
  0
LINE
  8
18
  6
CONTINUOUS
 10
26.200436
 20
25.270047
 11
28.311300
 21
23.923772
  0
LINE
  8
18
  6
CONTINUOUS
 10
18.711300
 20
25.650047
 11
19.091300
 21
25.650047
  0
LINE
  8
18
  6
CONTINUOUS
 10
18.711300
 20
25.270047
 11
19.091300
 21
25.270047
  0
LINE
  8
18
  6
CONTINUOUS
 10
71.511300
 20
24.374480
 11
73.511300
 21
25.650047
  0
LINE
  8
18
  6
CONTINUOUS
 10
71.511300
 20
23.923772
 11
73.622164
 21
25.270047
  0
LINE
  8
18
  6
CONTINUOUS
 10
73.511300
 20
25.650047
 11
80.731300
 21
25.650047
  0
LINE
  8
18
  6
CONTINUOUS
 10
73.622164
 20
25.270047
 11
80.731300
 21
25.270047
  0
LINE
  8
18
  6
CONTINUOUS
 10
80.731300
 20
25.650047
 11
81.111300
 21
25.650047
  0
LINE
  8
18
  6
CONTINUOUS
 10
80.731300
 20
25.270047
 11
81.111300
 21
25.270047
  0
LINE
  8
18
  6
CONTINUOUS
 10
34.111300
 20
21.554480
 11
44.311300
 21
21.554480
  0
LINE
  8
18
  6
CONTINUOUS
 10
34.111300
 20
21.174480
 11
44.311300
 21
21.174480
  0
LINE
  8
18
  6
CONTINUOUS
 10
33.731300
 20
21.554480
 11
34.111300
 21
21.554480
  0
LINE
  8
18
  6
CONTINUOUS
 10
33.731300
 20
21.174480
 11
34.111300
 21
21.174480
  0
LINE
  8
18
  6
CONTINUOUS
 10
44.311300
 20
21.554480
 11
44.691300
 21
21.554480
  0
LINE
  8
18
  6
CONTINUOUS
 10
44.311300
 20
21.174480
 11
44.691300
 21
21.174480
  0
LINE
  8
18
  6
CONTINUOUS
 10
55.511300
 20
21.554480
 11
65.711300
 21
21.554480
  0
LINE
  8
18
  6
CONTINUOUS
 10
55.511300
 20
21.174480
 11
65.711300
 21
21.174480
  0
LINE
  8
18
  6
CONTINUOUS
 10
55.131300
 20
21.554480
 11
55.511300
 21
21.554480
  0
LINE
  8
18
  6
CONTINUOUS
 10
55.131300
 20
21.174480
 11
55.511300
 21
21.174480
  0
LINE
  8
18
  6
CONTINUOUS
 10
65.711300
 20
21.554480
 11
66.091300
 21
21.554480
  0
LINE
  8
18
  6
CONTINUOUS
 10
65.711300
 20
21.174480
 11
66.091300
 21
21.174480
  0
LINE
  8
18
  6
CONTINUOUS
 10
20.311300
 20
19.230047
 11
22.711300
 21
19.230047
  0
LINE
  8
18
  6
CONTINUOUS
 10
20.311300
 20
18.850047
 11
22.711300
 21
18.850047
  0
LINE
  8
18
  6
CONTINUOUS
 10
23.091300
 20
19.230047
 11
28.311300
 21
19.230047
  0
LINE
  8
18
  6
CONTINUOUS
 10
23.091300
 20
18.850047
 11
28.311300
 21
18.850047
  0
LINE
  8
18
  6
CONTINUOUS
 10
22.711300
 20
19.230047
 11
23.091300
 21
19.230047
  0
LINE
  8
18
  6
CONTINUOUS
 10
22.711300
 20
18.850047
 11
23.091300
 21
18.850047
  0
LINE
  8
18
  6
CONTINUOUS
 10
28.311300
 20
19.230047
 11
28.691300
 21
19.230047
  0
LINE
  8
18
  6
CONTINUOUS
 10
28.311300
 20
18.850047
 11
28.691300
 21
18.850047
  0
LINE
  8
18
  6
CONTINUOUS
 10
46.711300
 20
18.934480
 11
53.111300
 21
18.934480
  0
LINE
  8
18
  6
CONTINUOUS
 10
46.711300
 20
18.554480
 11
53.111300
 21
18.554480
  0
LINE
  8
18
  6
CONTINUOUS
 10
71.511300
 20
19.230047
 11
76.731300
 21
19.230047
  0
LINE
  8
18
  6
CONTINUOUS
 10
71.511300
 20
18.850047
 11
76.731300
 21
18.850047
  0
LINE
  8
18
  6
CONTINUOUS
 10
77.111300
 20
19.230047
 11
79.511300
 21
19.230047
  0
LINE
  8
18
  6
CONTINUOUS
 10
77.111300
 20
18.850047
 11
79.511300
 21
18.850047
  0
LINE
  8
18
  6
CONTINUOUS
 10
71.131300
 20
19.230047
 11
71.511300
 21
19.230047
  0
LINE
  8
18
  6
CONTINUOUS
 10
71.131300
 20
18.850047
 11
71.511300
 21
18.850047
  0
LINE
  8
18
  6
CONTINUOUS
 10
76.731300
 20
19.230047
 11
77.111300
 21
19.230047
  0
LINE
  8
18
  6
CONTINUOUS
 10
76.731300
 20
18.850047
 11
77.111300
 21
18.850047
  0
LINE
  8
18
  6
CONTINUOUS
 10
23.211300
 20
11.630047
 11
28.311300
 21
11.630047
  0
LINE
  8
18
  6
CONTINUOUS
 10
23.211300
 20
11.250047
 11
28.311300
 21
11.250047
  0
LINE
  8
18
  6
CONTINUOUS
 10
28.311300
 20
11.630047
 11
28.691300
 21
11.630047
  0
LINE
  8
18
  6
CONTINUOUS
 10
28.311300
 20
11.250047
 11
28.691300
 21
11.250047
  0
LINE
  8
18
  6
CONTINUOUS
 10
71.511300
 20
11.630047
 11
76.611300
 21
11.630047
  0
LINE
  8
18
  6
CONTINUOUS
 10
71.511300
 20
11.250047
 11
76.611300
 21
11.250047
  0
LINE
  8
18
  6
CONTINUOUS
 10
71.131300
 20
11.630047
 11
71.511300
 21
11.630047
  0
LINE
  8
18
  6
CONTINUOUS
 10
71.131300
 20
11.250047
 11
71.511300
 21
11.250047
  0
LINE
  8
18
  6
CONTINUOUS
 10
28.691300
 20
8.374480
 11
33.571300
 21
8.374480
  0
LINE
  8
18
  6
CONTINUOUS
 10
28.691300
 20
7.994480
 11
33.571300
 21
7.994480
  0
LINE
  8
18
  6
CONTINUOUS
 10
34.111300
 20
8.374480
 11
44.191300
 21
8.374480
  0
LINE
  8
18
  6
CONTINUOUS
 10
34.111300
 20
7.994480
 11
44.191300
 21
7.994480
  0
LINE
  8
18
  6
CONTINUOUS
 10
44.731300
 20
8.374480
 11
55.091300
 21
8.374480
  0
LINE
  8
18
  6
CONTINUOUS
 10
44.731300
 20
7.994480
 11
55.091300
 21
7.994480
  0
LINE
  8
18
  6
CONTINUOUS
 10
55.631300
 20
8.374480
 11
65.711300
 21
8.374480
  0
LINE
  8
18
  6
CONTINUOUS
 10
55.631300
 20
7.994480
 11
65.711300
 21
7.994480
  0
LINE
  8
18
  6
CONTINUOUS
 10
66.251300
 20
8.374480
 11
71.131300
 21
8.374480
  0
LINE
  8
18
  6
CONTINUOUS
 10
66.251300
 20
7.994480
 11
71.131300
 21
7.994480
  0
LINE
  8
18
  6
CONTINUOUS
 10
28.311300
 20
8.374480
 11
28.691300
 21
8.374480
  0
LINE
  8
18
  6
CONTINUOUS
 10
28.311300
 20
7.994480
 11
28.691300
 21
7.994480
  0
LINE
  8
18
  6
CONTINUOUS
 10
71.131300
 20
8.374480
 11
71.511300
 21
8.374480
  0
LINE
  8
18
  6
CONTINUOUS
 10
71.131300
 20
7.994480
 11
71.511300
 21
7.994480
  0
LINE
  8
18
  6
CONTINUOUS
 10
10.320800
 20
40.150047
 11
13.081222
 21
47.850047
  0
LINE
  8
18
  6
CONTINUOUS
 10
10.724481
 20
40.150047
 11
13.305655
 21
47.350047
  0
LINE
  8
18
  6
CONTINUOUS
 10
14.465549
 20
34.350047
 11
14.465549
 21
39.650047
  0
LINE
  8
18
  6
CONTINUOUS
 10
14.845549
 20
34.350047
 11
14.845549
 21
39.650047
  0
LINE
  8
18
  6
CONTINUOUS
 10
14.465549
 20
39.650047
 11
14.465549
 21
40.030047
  0
LINE
  8
18
  6
CONTINUOUS
 10
14.845549
 20
39.650047
 11
14.845549
 21
40.030047
  0
LINE
  8
18
  6
CONTINUOUS
 10
18.711300
 20
19.450047
 11
18.711300
 21
25.270047
  0
LINE
  8
18
  6
CONTINUOUS
 10
19.091300
 20
19.450047
 11
19.091300
 21
25.270047
  0
LINE
  8
18
  6
CONTINUOUS
 10
18.711300
 20
25.650047
 11
18.711300
 21
33.850047
  0
LINE
  8
18
  6
CONTINUOUS
 10
19.091300
 20
25.650047
 11
19.091300
 21
33.850047
  0
LINE
  8
18
  6
CONTINUOUS
 10
18.711300
 20
25.270047
 11
18.711300
 21
25.650047
  0
LINE
  8
18
  6
CONTINUOUS
 10
19.091300
 20
25.270047
 11
19.091300
 21
25.650047
  0
LINE
  8
18
  6
CONTINUOUS
 10
18.711300
 20
33.850047
 11
18.711300
 21
34.230047
  0
LINE
  8
18
  6
CONTINUOUS
 10
19.091300
 20
33.850047
 11
19.091300
 21
34.230047
  0
LINE
  8
18
  6
CONTINUOUS
 10
22.285549
 20
37.850047
 11
22.285549
 21
37.850047
  0
LINE
  8
18
  6
CONTINUOUS
 10
22.665549
 20
37.850047
 11
22.665549
 21
37.850047
  0
LINE
  8
18
  6
CONTINUOUS
 10
22.093135
 20
39.924367
 11
22.882088
 21
42.126488
  0
LINE
  8
18
  6
CONTINUOUS
 10
22.665549
 20
40.039624
 11
23.382088
 21
42.039624
  0
LINE
  8
18
  6
CONTINUOUS
 10
22.882088
 20
42.126488
 11
22.882088
 21
45.860047
  0
LINE
  8
18
  6
CONTINUOUS
 10
23.382088
 20
42.039624
 11
23.382088
 21
45.860047
  0
LINE
  8
18
  6
CONTINUOUS
 10
22.882088
 20
45.860047
 11
22.882088
 21
45.350047
  0
LINE
  8
18
  6
CONTINUOUS
 10
23.382088
 20
45.860047
 11
23.382088
 21
45.350047
  0
LINE
  8
18
  6
CONTINUOUS
 10
22.711300
 20
13.050047
 11
22.711300
 21
18.850047
  0
LINE
  8
18
  6
CONTINUOUS
 10
23.091300
 20
13.050047
 11
23.091300
 21
18.850047
  0
LINE
  8
18
  6
CONTINUOUS
 10
22.711300
 20
18.850047
 11
22.711300
 21
19.230047
  0
LINE
  8
18
  6
CONTINUOUS
 10
23.091300
 20
18.850047
 11
23.091300
 21
19.230047
  0
LINE
  8
18
  6
CONTINUOUS
 10
28.311300
 20
8.374480
 11
28.311300
 21
11.250047
  0
LINE
  8
18
  6
CONTINUOUS
 10
28.691300
 20
8.374480
 11
28.691300
 21
11.250047
  0
LINE
  8
18
  6
CONTINUOUS
 10
28.311300
 20
11.630047
 11
28.311300
 21
18.850047
  0
LINE
  8
18
  6
CONTINUOUS
 10
28.691300
 20
11.630047
 11
28.691300
 21
18.850047
  0
LINE
  8
18
  6
CONTINUOUS
 10
28.311300
 20
19.230047
 11
28.311300
 21
22.374480
  0
LINE
  8
18
  6
CONTINUOUS
 10
28.691300
 20
19.230047
 11
28.691300
 21
22.374480
  0
LINE
  8
18
  6
CONTINUOUS
 10
28.311300
 20
22.374480
 11
28.311300
 21
22.374480
  0
LINE
  8
18
  6
CONTINUOUS
 10
28.691300
 20
22.374480
 11
28.691300
 21
22.374480
  0
LINE
  8
18
  6
CONTINUOUS
 10
28.311300
 20
7.994480
 11
28.311300
 21
8.374480
  0
LINE
  8
18
  6
CONTINUOUS
 10
28.691300
 20
7.994480
 11
28.691300
 21
8.374480
  0
LINE
  8
18
  6
CONTINUOUS
 10
28.311300
 20
11.250047
 11
28.311300
 21
11.630047
  0
LINE
  8
18
  6
CONTINUOUS
 10
28.691300
 20
11.250047
 11
28.691300
 21
11.630047
  0
LINE
  8
18
  6
CONTINUOUS
 10
28.311300
 20
18.850047
 11
28.311300
 21
19.230047
  0
LINE
  8
18
  6
CONTINUOUS
 10
28.691300
 20
18.850047
 11
28.691300
 21
19.230047
  0
LINE
  8
18
  6
CONTINUOUS
 10
29.511300
 20
34.230047
 11
29.511300
 21
36.270047
  0
LINE
  8
18
  6
CONTINUOUS
 10
29.891300
 20
34.230047
 11
29.891300
 21
36.270047
  0
LINE
  8
18
  6
CONTINUOUS
 10
29.511300
 20
36.650047
 11
29.511300
 21
45.670047
  0
LINE
  8
18
  6
CONTINUOUS
 10
29.891300
 20
36.650047
 11
29.891300
 21
45.670047
  0
LINE
  8
18
  6
CONTINUOUS
 10
29.511300
 20
36.270047
 11
29.511300
 21
36.650047
  0
LINE
  8
18
  6
CONTINUOUS
 10
29.891300
 20
36.270047
 11
29.891300
 21
36.650047
  0
LINE
  8
18
  6
CONTINUOUS
 10
29.511300
 20
45.670047
 11
29.511300
 21
46.050047
  0
LINE
  8
18
  6
CONTINUOUS
 10
29.891300
 20
45.670047
 11
29.891300
 21
46.050047
  0
LINE
  8
18
  6
CONTINUOUS
 10
33.731300
 20
10.394480
 11
33.731300
 21
21.174480
  0
LINE
  8
18
  6
CONTINUOUS
 10
34.111300
 20
10.394480
 11
34.111300
 21
21.174480
  0
LINE
  8
18
  6
CONTINUOUS
 10
33.731300
 20
21.554480
 11
33.731300
 21
21.974480
  0
LINE
  8
18
  6
CONTINUOUS
 10
34.111300
 20
21.554480
 11
34.111300
 21
21.974480
  0
LINE
  8
18
  6
CONTINUOUS
 10
33.731300
 20
24.374480
 11
33.731300
 21
33.850047
  0
LINE
  8
18
  6
CONTINUOUS
 10
34.111300
 20
24.374480
 11
34.111300
 21
33.850047
  0
LINE
  8
18
  6
CONTINUOUS
 10
33.731300
 20
21.174480
 11
33.731300
 21
21.554480
  0
LINE
  8
18
  6
CONTINUOUS
 10
34.111300
 20
21.174480
 11
34.111300
 21
21.554480
  0
LINE
  8
18
  6
CONTINUOUS
 10
33.731300
 20
33.850047
 11
33.731300
 21
34.230047
  0
LINE
  8
18
  6
CONTINUOUS
 10
34.111300
 20
33.850047
 11
34.111300
 21
34.230047
  0
LINE
  8
18
  6
CONTINUOUS
 10
33.731300
 20
36.650047
 11
33.731300
 21
44.826008
  0
LINE
  8
18
  6
CONTINUOUS
 10
34.111300
 20
36.650047
 11
34.111300
 21
44.826008
  0
LINE
  8
18
  6
CONTINUOUS
 10
33.731302
 20
44.826856
 11
33.735125
 21
44.250047
  0
LINE
  8
18
  6
CONTINUOUS
 10
34.111298
 20
44.825160
 11
34.115913
 21
45.859199
  0
LINE
  8
18
  6
CONTINUOUS
 10
33.731300
 20
36.270047
 11
33.731300
 21
36.650047
  0
LINE
  8
18
  6
CONTINUOUS
 10
34.111300
 20
36.270047
 11
34.111300
 21
36.650047
  0
LINE
  8
18
  6
CONTINUOUS
 10
36.711300
 20
32.574480
 11
36.711300
 21
32.384480
  0
LINE
  8
18
  6
CONTINUOUS
 10
37.151300
 20
32.574480
 11
37.151300
 21
32.384480
  0
LINE
  8
18
  6
CONTINUOUS
 10
36.711300
 20
32.384480
 11
36.711300
 21
33.850047
  0
LINE
  8
18
  6
CONTINUOUS
 10
37.151300
 20
32.384480
 11
37.151300
 21
33.850047
  0
LINE
  8
18
  6
CONTINUOUS
 10
36.711300
 20
34.230047
 11
36.711300
 21
36.270047
  0
LINE
  8
18
  6
CONTINUOUS
 10
37.151300
 20
34.230047
 11
37.151300
 21
36.270047
  0
LINE
  8
18
  6
CONTINUOUS
 10
36.711300
 20
33.850047
 11
36.711300
 21
34.230047
  0
LINE
  8
18
  6
CONTINUOUS
 10
37.151300
 20
33.850047
 11
37.151300
 21
34.230047
  0
LINE
  8
18
  6
CONTINUOUS
 10
36.711300
 20
36.270047
 11
36.711300
 21
36.650047
  0
LINE
  8
18
  6
CONTINUOUS
 10
37.151300
 20
36.270047
 11
37.151300
 21
36.650047
  0
LINE
  8
18
  6
CONTINUOUS
 10
44.311300
 20
10.394480
 11
44.311300
 21
18.444480
  0
LINE
  8
18
  6
CONTINUOUS
 10
44.691300
 20
10.394480
 11
44.691300
 21
18.444480
  0
LINE
  8
18
  6
CONTINUOUS
 10
44.311300
 20
19.044480
 11
44.311300
 21
21.174480
  0
LINE
  8
18
  6
CONTINUOUS
 10
44.691300
 20
19.044480
 11
44.691300
 21
21.174480
  0
LINE
  8
18
  6
CONTINUOUS
 10
44.311300
 20
21.554480
 11
44.311300
 21
26.974480
  0
LINE
  8
18
  6
CONTINUOUS
 10
44.691300
 20
21.554480
 11
44.691300
 21
26.974480
  0
LINE
  8
18
  6
CONTINUOUS
 10
44.311300
 20
21.174480
 11
44.311300
 21
21.554480
  0
LINE
  8
18
  6
CONTINUOUS
 10
44.691300
 20
21.174480
 11
44.691300
 21
21.554480
  0
LINE
  8
18
  6
CONTINUOUS
 10
44.311300
 20
26.974480
 11
44.311300
 21
27.414480
  0
LINE
  8
18
  6
CONTINUOUS
 10
44.691300
 20
26.974480
 11
44.691300
 21
27.414480
  0
LINE
  8
18
  6
CONTINUOUS
 10
49.711300
 20
27.414480
 11
49.711300
 21
30.174080
  0
LINE
  8
18
  6
CONTINUOUS
 10
50.091300
 20
27.414480
 11
50.091300
 21
30.174080
  0
LINE
  8
18
  6
CONTINUOUS
 10
49.711300
 20
30.174080
 11
49.711300
 21
32.973680
  0
LINE
  8
18
  6
CONTINUOUS
 10
50.091300
 20
30.174080
 11
50.091300
 21
32.973680
  0
LINE
  8
18
  6
CONTINUOUS
 10
49.711300
 20
32.973680
 11
49.711300
 21
32.934480
  0
LINE
  8
18
  6
CONTINUOUS
 10
50.091300
 20
32.973680
 11
50.091300
 21
32.934480
  0
LINE
  8
18
  6
CONTINUOUS
 10
49.711300
 20
26.974480
 11
49.711300
 21
27.414480
  0
LINE
  8
18
  6
CONTINUOUS
 10
50.091300
 20
26.974480
 11
50.091300
 21
27.414480
  0
LINE
  8
18
  6
CONTINUOUS
 10
49.711300
 20
32.934480
 11
49.711300
 21
33.374480
  0
LINE
  8
18
  6
CONTINUOUS
 10
50.091300
 20
32.934480
 11
50.091300
 21
33.374480
  0
LINE
  8
18
  6
CONTINUOUS
 10
52.451300
 20
27.414480
 11
52.451300
 21
32.194480
  0
LINE
  8
18
  6
CONTINUOUS
 10
52.951300
 20
27.414480
 11
52.951300
 21
32.194480
  0
LINE
  8
18
  6
CONTINUOUS
 10
52.451300
 20
32.574480
 11
52.451300
 21
32.874480
  0
LINE
  8
18
  6
CONTINUOUS
 10
52.951300
 20
32.574480
 11
52.951300
 21
32.874480
  0
LINE
  8
18
  6
CONTINUOUS
 10
52.451300
 20
26.974480
 11
52.451300
 21
27.414480
  0
LINE
  8
18
  6
CONTINUOUS
 10
52.951300
 20
26.974480
 11
52.951300
 21
27.414480
  0
LINE
  8
18
  6
CONTINUOUS
 10
52.451300
 20
32.194480
 11
52.451300
 21
32.574480
  0
LINE
  8
18
  6
CONTINUOUS
 10
52.951300
 20
32.194480
 11
52.951300
 21
32.574480
  0
LINE
  8
18
  6
CONTINUOUS
 10
55.131300
 20
10.394480
 11
55.131300
 21
18.444480
  0
LINE
  8
18
  6
CONTINUOUS
 10
55.511300
 20
10.394480
 11
55.511300
 21
18.444480
  0
LINE
  8
18
  6
CONTINUOUS
 10
55.131300
 20
19.044480
 11
55.131300
 21
21.174480
  0
LINE
  8
18
  6
CONTINUOUS
 10
55.511300
 20
19.044480
 11
55.511300
 21
21.174480
  0
LINE
  8
18
  6
CONTINUOUS
 10
55.131300
 20
21.554480
 11
55.131300
 21
26.974480
  0
LINE
  8
18
  6
CONTINUOUS
 10
55.511300
 20
21.554480
 11
55.511300
 21
26.974480
  0
LINE
  8
18
  6
CONTINUOUS
 10
55.131300
 20
21.174480
 11
55.131300
 21
21.554480
  0
LINE
  8
18
  6
CONTINUOUS
 10
55.511300
 20
21.174480
 11
55.511300
 21
21.554480
  0
LINE
  8
18
  6
CONTINUOUS
 10
58.311300
 20
27.414480
 11
58.311300
 21
30.374480
  0
LINE
  8
18
  6
CONTINUOUS
 10
58.691300
 20
27.414480
 11
58.691300
 21
30.374480
  0
LINE
  8
18
  6
CONTINUOUS
 10
58.311300
 20
30.374480
 11
58.311300
 21
32.194480
  0
LINE
  8
18
  6
CONTINUOUS
 10
58.691300
 20
30.374480
 11
58.691300
 21
32.194480
  0
LINE
  8
18
  6
CONTINUOUS
 10
58.311300
 20
26.974480
 11
58.311300
 21
27.414480
  0
LINE
  8
18
  6
CONTINUOUS
 10
58.691300
 20
26.974480
 11
58.691300
 21
27.414480
  0
LINE
  8
18
  6
CONTINUOUS
 10
58.311300
 20
32.194480
 11
58.311300
 21
32.574480
  0
LINE
  8
18
  6
CONTINUOUS
 10
58.691300
 20
32.194480
 11
58.691300
 21
32.574480
  0
LINE
  8
18
  6
CONTINUOUS
 10
62.671300
 20
32.574480
 11
62.671300
 21
32.384480
  0
LINE
  8
18
  6
CONTINUOUS
 10
63.111300
 20
32.574480
 11
63.111300
 21
32.384480
  0
LINE
  8
18
  6
CONTINUOUS
 10
62.671300
 20
32.384480
 11
62.671300
 21
33.850047
  0
LINE
  8
18
  6
CONTINUOUS
 10
63.111300
 20
32.384480
 11
63.111300
 21
33.850047
  0
LINE
  8
18
  6
CONTINUOUS
 10
62.671300
 20
34.230047
 11
62.671300
 21
36.270047
  0
LINE
  8
18
  6
CONTINUOUS
 10
63.111300
 20
34.230047
 11
63.111300
 21
36.270047
  0
LINE
  8
18
  6
CONTINUOUS
 10
62.671300
 20
33.850047
 11
62.671300
 21
34.230047
  0
LINE
  8
18
  6
CONTINUOUS
 10
63.111300
 20
33.850047
 11
63.111300
 21
34.230047
  0
LINE
  8
18
  6
CONTINUOUS
 10
62.671300
 20
36.270047
 11
62.671300
 21
36.650047
  0
LINE
  8
18
  6
CONTINUOUS
 10
63.111300
 20
36.270047
 11
63.111300
 21
36.650047
  0
LINE
  8
18
  6
CONTINUOUS
 10
65.711300
 20
10.394480
 11
65.711300
 21
21.174480
  0
LINE
  8
18
  6
CONTINUOUS
 10
66.091300
 20
10.394480
 11
66.091300
 21
21.174480
  0
LINE
  8
18
  6
CONTINUOUS
 10
65.711300
 20
21.554480
 11
65.711300
 21
21.974480
  0
LINE
  8
18
  6
CONTINUOUS
 10
66.091300
 20
21.554480
 11
66.091300
 21
21.974480
  0
LINE
  8
18
  6
CONTINUOUS
 10
65.711300
 20
24.374480
 11
65.711300
 21
33.850047
  0
LINE
  8
18
  6
CONTINUOUS
 10
66.091300
 20
24.374480
 11
66.091300
 21
33.850047
  0
LINE
  8
18
  6
CONTINUOUS
 10
65.711300
 20
21.174480
 11
65.711300
 21
21.554480
  0
LINE
  8
18
  6
CONTINUOUS
 10
66.091300
 20
21.174480
 11
66.091300
 21
21.554480
  0
LINE
  8
18
  6
CONTINUOUS
 10
65.711300
 20
33.850047
 11
65.711300
 21
34.230047
  0
LINE
  8
18
  6
CONTINUOUS
 10
66.091300
 20
33.850047
 11
66.091300
 21
34.230047
  0
LINE
  8
18
  6
CONTINUOUS
 10
65.711300
 20
36.650047
 11
65.711300
 21
45.094443
  0
LINE
  8
18
  6
CONTINUOUS
 10
66.091300
 20
36.650047
 11
66.091300
 21
45.094443
  0
LINE
  8
18
  6
CONTINUOUS
 10
65.711303
 20
45.093298
 11
65.706689
 21
45.858902
  0
LINE
  8
18
  6
CONTINUOUS
 10
66.091297
 20
45.095588
 11
66.087473
 21
44.250047
  0
LINE
  8
18
  6
CONTINUOUS
 10
65.711300
 20
36.270047
 11
65.711300
 21
36.650047
  0
LINE
  8
18
  6
CONTINUOUS
 10
66.091300
 20
36.270047
 11
66.091300
 21
36.650047
  0
LINE
  8
18
  6
CONTINUOUS
 10
69.931300
 20
34.230047
 11
69.931300
 21
36.270047
  0
LINE
  8
18
  6
CONTINUOUS
 10
70.311300
 20
34.230047
 11
70.311300
 21
36.270047
  0
LINE
  8
18
  6
CONTINUOUS
 10
69.931300
 20
36.650047
 11
69.931300
 21
45.670047
  0
LINE
  8
18
  6
CONTINUOUS
 10
70.311300
 20
36.650047
 11
70.311300
 21
45.670047
  0
LINE
  8
18
  6
CONTINUOUS
 10
69.931300
 20
36.270047
 11
69.931300
 21
36.650047
  0
LINE
  8
18
  6
CONTINUOUS
 10
70.311300
 20
36.270047
 11
70.311300
 21
36.650047
  0
LINE
  8
18
  6
CONTINUOUS
 10
69.931300
 20
45.670047
 11
69.931300
 21
46.050047
  0
LINE
  8
18
  6
CONTINUOUS
 10
70.311300
 20
45.670047
 11
70.311300
 21
46.050047
  0
LINE
  8
18
  6
CONTINUOUS
 10
71.131300
 20
8.374480
 11
71.131300
 21
11.250047
  0
LINE
  8
18
  6
CONTINUOUS
 10
71.511300
 20
8.374480
 11
71.511300
 21
11.250047
  0
LINE
  8
18
  6
CONTINUOUS
 10
71.131300
 20
11.630047
 11
71.131300
 21
18.850047
  0
LINE
  8
18
  6
CONTINUOUS
 10
71.511300
 20
11.630047
 11
71.511300
 21
18.850047
  0
LINE
  8
18
  6
CONTINUOUS
 10
71.131300
 20
19.230047
 11
71.131300
 21
22.374480
  0
LINE
  8
18
  6
CONTINUOUS
 10
71.511300
 20
19.230047
 11
71.511300
 21
22.374480
  0
LINE
  8
18
  6
CONTINUOUS
 10
71.131300
 20
22.374480
 11
71.131300
 21
22.374480
  0
LINE
  8
18
  6
CONTINUOUS
 10
71.511300
 20
22.374480
 11
71.511300
 21
22.374480
  0
LINE
  8
18
  6
CONTINUOUS
 10
71.131300
 20
7.994480
 11
71.131300
 21
8.374480
  0
LINE
  8
18
  6
CONTINUOUS
 10
71.511300
 20
7.994480
 11
71.511300
 21
8.374480
  0
LINE
  8
18
  6
CONTINUOUS
 10
71.131300
 20
11.250047
 11
71.131300
 21
11.630047
  0
LINE
  8
18
  6
CONTINUOUS
 10
71.511300
 20
11.250047
 11
71.511300
 21
11.630047
  0
LINE
  8
18
  6
CONTINUOUS
 10
71.131300
 20
18.850047
 11
71.131300
 21
19.230047
  0
LINE
  8
18
  6
CONTINUOUS
 10
71.511300
 20
18.850047
 11
71.511300
 21
19.230047
  0
LINE
  8
18
  6
CONTINUOUS
 10
76.731300
 20
13.450047
 11
76.731300
 21
18.850047
  0
LINE
  8
18
  6
CONTINUOUS
 10
77.111300
 20
13.450047
 11
77.111300
 21
18.850047
  0
LINE
  8
18
  6
CONTINUOUS
 10
76.731300
 20
18.850047
 11
76.731300
 21
19.230047
  0
LINE
  8
18
  6
CONTINUOUS
 10
77.111300
 20
18.850047
 11
77.111300
 21
19.230047
  0
LINE
  8
18
  6
CONTINUOUS
 10
77.157051
 20
37.850047
 11
77.157051
 21
37.850047
  0
LINE
  8
18
  6
CONTINUOUS
 10
77.537051
 20
37.850047
 11
77.537051
 21
37.850047
  0
LINE
  8
18
  6
CONTINUOUS
 10
76.940512
 20
45.350047
 11
76.940512
 21
45.860047
  0
LINE
  8
18
  6
CONTINUOUS
 10
76.440512
 20
45.350047
 11
76.440512
 21
45.860047
  0
LINE
  8
18
  6
CONTINUOUS
 10
76.940512
 20
45.860047
 11
76.940512
 21
42.126488
  0
LINE
  8
18
  6
CONTINUOUS
 10
76.440512
 20
45.860047
 11
76.440512
 21
42.039624
  0
LINE
  8
18
  6
CONTINUOUS
 10
76.940512
 20
42.126488
 11
77.729465
 21
39.924367
  0
LINE
  8
18
  6
CONTINUOUS
 10
76.440512
 20
42.039624
 11
77.157051
 21
40.039623
  0
LINE
  8
18
  6
CONTINUOUS
 10
80.731300
 20
19.450047
 11
80.731300
 21
25.270047
  0
LINE
  8
18
  6
CONTINUOUS
 10
81.111300
 20
19.450047
 11
81.111300
 21
25.270047
  0
LINE
  8
18
  6
CONTINUOUS
 10
80.731300
 20
25.650047
 11
80.731300
 21
33.850047
  0
LINE
  8
18
  6
CONTINUOUS
 10
81.111300
 20
25.650047
 11
81.111300
 21
33.850047
  0
LINE
  8
18
  6
CONTINUOUS
 10
80.731300
 20
25.270047
 11
80.731300
 21
25.650047
  0
LINE
  8
18
  6
CONTINUOUS
 10
81.111300
 20
25.270047
 11
81.111300
 21
25.650047
  0
LINE
  8
18
  6
CONTINUOUS
 10
80.731300
 20
33.850047
 11
80.731300
 21
34.230047
  0
LINE
  8
18
  6
CONTINUOUS
 10
81.111300
 20
33.850047
 11
81.111300
 21
34.230047
  0
LINE
  8
18
  6
CONTINUOUS
 10
84.977051
 20
34.350047
 11
84.977051
 21
39.650047
  0
LINE
  8
18
  6
CONTINUOUS
 10
85.357051
 20
34.350047
 11
85.357051
 21
39.650047
  0
LINE
  8
18
  6
CONTINUOUS
 10
84.977051
 20
39.650047
 11
84.977051
 21
40.030047
  0
LINE
  8
18
  6
CONTINUOUS
 10
85.357051
 20
39.650047
 11
85.357051
 21
40.030047
  0
LINE
  8
18
  6
CONTINUOUS
 10
89.098114
 20
40.150047
 11
86.516946
 21
47.350047
  0
LINE
  8
18
  6
CONTINUOUS
 10
89.501795
 20
40.150047
 11
86.741379
 21
47.850047
  0
LINE
  8
18
  6
CONTINUOUS
 10
41.111300
 20
27.474480
 11
41.111300
 21
27.374480
  0
LINE
  8
18
  6
CONTINUOUS
 10
41.491300
 20
27.474480
 11
41.491300
 21
27.374480
  0
LINE
  8
18
  6
CONTINUOUS
 10
41.111300
 20
27.374480
 11
41.111300
 21
31.774480
  0
LINE
  8
18
  6
CONTINUOUS
 10
41.491300
 20
27.374480
 11
41.491300
 21
31.774480
  0
LINE
  8
18
  6
CONTINUOUS
 10
41.111300
 20
31.774480
 11
41.111300
 21
31.774480
  0
LINE
  8
18
  6
CONTINUOUS
 10
41.491300
 20
31.774480
 11
41.491300
 21
31.774480
  0
LINE
  8
2
  6
CONTINUOUS
 10
13.931223
 20
47.600047
 11
13.931223
 21
47.600047
  0
POLYLINE
  8
2
  6
CONTINUOUS
 66
     1
  0
VERTEX
  8
2
  6
CONTINUOUS
 10
13.081223
 20
47.850047
  0
VERTEX
  8
2
  6
CONTINUOUS
 10
13.081223
 20
47.350047
  0
VERTEX
  8
2
  6
CONTINUOUS
 10
14.781223
 20
47.350047
  0
VERTEX
  8
2
  6
CONTINUOUS
 10
14.781223
 20
47.850047
  0
VERTEX
  8
2
  6
CONTINUOUS
 10
13.081223
 20
47.850047
  0
SEQEND
  8
2
  6
CONTINUOUS
  0
LINE
  8
2
  6
CONTINUOUS
 10
23.112088
 20
46.600047
 11
23.112088
 21
46.600047
  0
POLYLINE
  8
2
  6
CONTINUOUS
 66
     1
  0
VERTEX
  8
2
  6
CONTINUOUS
 10
22.842088
 20
45.350047
  0
VERTEX
  8
2
  6
CONTINUOUS
 10
23.382088
 20
45.350047
  0
VERTEX
  8
2
  6
CONTINUOUS
 10
23.382088
 20
47.850047
  0
VERTEX
  8
2
  6
CONTINUOUS
 10
22.842088
 20
47.850047
  0
VERTEX
  8
2
  6
CONTINUOUS
 10
22.842088
 20
45.350047
  0
SEQEND
  8
2
  6
CONTINUOUS
  0
LINE
  8
2
  6
CONTINUOUS
 10
76.710512
 20
46.600047
 11
76.710512
 21
46.600047
  0
POLYLINE
  8
2
  6
CONTINUOUS
 66
     1
  0
VERTEX
  8
2
  6
CONTINUOUS
 10
76.440512
 20
45.350047
  0
VERTEX
  8
2
  6
CONTINUOUS
 10
76.980512
 20
45.350047
  0
VERTEX
  8
2
  6
CONTINUOUS
 10
76.980512
 20
47.850047
  0
VERTEX
  8
2
  6
CONTINUOUS
 10
76.440512
 20
47.850047
  0
VERTEX
  8
2
  6
CONTINUOUS
 10
76.440512
 20
45.350047
  0
SEQEND
  8
2
  6
CONTINUOUS
  0
LINE
  8
2
  6
CONTINUOUS
 10
85.891377
 20
47.600047
 11
85.891377
 21
47.600047
  0
POLYLINE
  8
2
  6
CONTINUOUS
 66
     1
  0
VERTEX
  8
2
  6
CONTINUOUS
 10
86.741377
 20
47.350047
  0
VERTEX
  8
2
  6
CONTINUOUS
 10
86.741377
 20
47.850047
  0
VERTEX
  8
2
  6
CONTINUOUS
 10
85.041377
 20
47.850047
  0
VERTEX
  8
2
  6
CONTINUOUS
 10
85.041377
 20
47.350047
  0
VERTEX
  8
2
  6
CONTINUOUS
 10
86.741377
 20
47.350047
  0
SEQEND
  8
2
  6
CONTINUOUS
  0
LINE
  8
2
  6
CONTINUOUS
 10
33.861300
 20
45.150047
 11
33.861300
 21
45.150047
  0
POLYLINE
  8
2
  6
CONTINUOUS
 66
     1
  0
VERTEX
  8
2
  6
CONTINUOUS
 10
34.111300
 20
46.050047
  0
VERTEX
  8
2
  6
CONTINUOUS
 10
33.611300
 20
46.050047
  0
VERTEX
  8
2
  6
CONTINUOUS
 10
33.611300
 20
44.250047
  0
VERTEX
  8
2
  6
CONTINUOUS
 10
34.111300
 20
44.250047
  0
VERTEX
  8
2
  6
CONTINUOUS
 10
34.111300
 20
46.050047
  0
SEQEND
  8
2
  6
CONTINUOUS
  0
LINE
  8
2
  6
CONTINUOUS
 10
65.961300
 20
45.150047
 11
65.961300
 21
45.150047
  0
POLYLINE
  8
2
  6
CONTINUOUS
 66
     1
  0
VERTEX
  8
2
  6
CONTINUOUS
 10
65.711300
 20
44.250047
  0
VERTEX
  8
2
  6
CONTINUOUS
 10
66.211300
 20
44.250047
  0
VERTEX
  8
2
  6
CONTINUOUS
 10
66.211300
 20
46.050047
  0
VERTEX
  8
2
  6
CONTINUOUS
 10
65.711300
 20
46.050047
  0
VERTEX
  8
2
  6
CONTINUOUS
 10
65.711300
 20
44.250047
  0
SEQEND
  8
2
  6
CONTINUOUS
  0
LINE
  8
2
  6
CONTINUOUS
 10
10.984950
 20
39.900047
 11
10.984950
 21
39.900047
  0
POLYLINE
  8
2
  6
CONTINUOUS
 66
     1
  0
VERTEX
  8
2
  6
CONTINUOUS
 10
10.284950
 20
40.150047
  0
VERTEX
  8
2
  6
CONTINUOUS
 10
10.284950
 20
39.650047
  0
VERTEX
  8
2
  6
CONTINUOUS
 10
11.684950
 20
39.650047
  0
VERTEX
  8
2
  6
CONTINUOUS
 10
11.684950
 20
40.150047
  0
VERTEX
  8
2
  6
CONTINUOUS
 10
10.284950
 20
40.150047
  0
SEQEND
  8
2
  6
CONTINUOUS
  0
LINE
  8
2
  6
CONTINUOUS
 10
88.837650
 20
39.900047
 11
88.837650
 21
39.900047
  0
POLYLINE
  8
2
  6
CONTINUOUS
 66
     1
  0
VERTEX
  8
2
  6
CONTINUOUS
 10
89.537650
 20
39.650047
  0
VERTEX
  8
2
  6
CONTINUOUS
 10
89.537650
 20
40.150047
  0
VERTEX
  8
2
  6
CONTINUOUS
 10
88.137650
 20
40.150047
  0
VERTEX
  8
2
  6
CONTINUOUS
 10
88.137650
 20
39.650047
  0
VERTEX
  8
2
  6
CONTINUOUS
 10
89.537650
 20
39.650047
  0
SEQEND
  8
2
  6
CONTINUOUS
  0
LINE
  8
2
  6
CONTINUOUS
 10
22.415549
 20
38.950047
 11
22.415549
 21
38.950047
  0
POLYLINE
  8
2
  6
CONTINUOUS
 66
     1
  0
VERTEX
  8
2
  6
CONTINUOUS
 10
22.165549
 20
37.850047
  0
VERTEX
  8
2
  6
CONTINUOUS
 10
22.665549
 20
37.850047
  0
VERTEX
  8
2
  6
CONTINUOUS
 10
22.665549
 20
40.050047
  0
VERTEX
  8
2
  6
CONTINUOUS
 10
22.165549
 20
40.050047
  0
VERTEX
  8
2
  6
CONTINUOUS
 10
22.165549
 20
37.850047
  0
SEQEND
  8
2
  6
CONTINUOUS
  0
LINE
  8
2
  6
CONTINUOUS
 10
77.407051
 20
38.950047
 11
77.407051
 21
38.950047
  0
POLYLINE
  8
2
  6
CONTINUOUS
 66
     1
  0
VERTEX
  8
2
  6
CONTINUOUS
 10
77.157051
 20
37.850047
  0
VERTEX
  8
2
  6
CONTINUOUS
 10
77.657051
 20
37.850047
  0
VERTEX
  8
2
  6
CONTINUOUS
 10
77.657051
 20
40.050047
  0
VERTEX
  8
2
  6
CONTINUOUS
 10
77.157051
 20
40.050047
  0
VERTEX
  8
2
  6
CONTINUOUS
 10
77.157051
 20
37.850047
  0
SEQEND
  8
2
  6
CONTINUOUS
  0
LINE
  8
2
  6
CONTINUOUS
 10
15.265549
 20
34.100047
 11
15.265549
 21
34.100047
  0
POLYLINE
  8
2
  6
CONTINUOUS
 66
     1
  0
VERTEX
  8
2
  6
CONTINUOUS
 10
16.065549
 20
33.850047
  0
VERTEX
  8
2
  6
CONTINUOUS
 10
16.065549
 20
34.350047
  0
VERTEX
  8
2
  6
CONTINUOUS
 10
14.465549
 20
34.350047
  0
VERTEX
  8
2
  6
CONTINUOUS
 10
14.465549
 20
33.850047
  0
VERTEX
  8
2
  6
CONTINUOUS
 10
16.065549
 20
33.850047
  0
SEQEND
  8
2
  6
CONTINUOUS
  0
LINE
  8
2
  6
CONTINUOUS
 10
28.711300
 20
33.930047
 11
28.711300
 21
33.930047
  0
POLYLINE
  8
2
  6
CONTINUOUS
 66
     1
  0
VERTEX
  8
2
  6
CONTINUOUS
 10
29.911300
 20
33.630047
  0
VERTEX
  8
2
  6
CONTINUOUS
 10
29.911300
 20
34.230047
  0
VERTEX
  8
2
  6
CONTINUOUS
 10
27.511300
 20
34.230047
  0
VERTEX
  8
2
  6
CONTINUOUS
 10
27.511300
 20
33.630047
  0
VERTEX
  8
2
  6
CONTINUOUS
 10
29.911300
 20
33.630047
  0
SEQEND
  8
2
  6
CONTINUOUS
  0
LINE
  8
2
  6
CONTINUOUS
 10
71.131300
 20
33.930047
 11
71.131300
 21
33.930047
  0
POLYLINE
  8
2
  6
CONTINUOUS
 66
     1
  0
VERTEX
  8
2
  6
CONTINUOUS
 10
69.931300
 20
34.230047
  0
VERTEX
  8
2
  6
CONTINUOUS
 10
69.931300
 20
33.630047
  0
VERTEX
  8
2
  6
CONTINUOUS
 10
72.331300
 20
33.630047
  0
VERTEX
  8
2
  6
CONTINUOUS
 10
72.331300
 20
34.230047
  0
VERTEX
  8
2
  6
CONTINUOUS
 10
69.931300
 20
34.230047
  0
SEQEND
  8
2
  6
CONTINUOUS
  0
LINE
  8
2
  6
CONTINUOUS
 10
84.557052
 20
34.100047
 11
84.557052
 21
34.100047
  0
POLYLINE
  8
2
  6
CONTINUOUS
 66
     1
  0
VERTEX
  8
2
  6
CONTINUOUS
 10
85.357052
 20
33.850047
  0
VERTEX
  8
2
  6
CONTINUOUS
 10
85.357052
 20
34.350047
  0
VERTEX
  8
2
  6
CONTINUOUS
 10
83.757052
 20
34.350047
  0
VERTEX
  8
2
  6
CONTINUOUS
 10
83.757052
 20
33.850047
  0
VERTEX
  8
2
  6
CONTINUOUS
 10
85.357052
 20
33.850047
  0
SEQEND
  8
2
  6
CONTINUOUS
  0
LINE
  8
2
  6
CONTINUOUS
 10
41.361300
 20
32.574480
 11
41.361300
 21
32.574480
  0
POLYLINE
  8
2
  6
CONTINUOUS
 66
     1
  0
VERTEX
  8
2
  6
CONTINUOUS
 10
41.611300
 20
33.374480
  0
VERTEX
  8
2
  6
CONTINUOUS
 10
41.111300
 20
33.374480
  0
VERTEX
  8
2
  6
CONTINUOUS
 10
41.111300
 20
31.774480
  0
VERTEX
  8
2
  6
CONTINUOUS
 10
41.611300
 20
31.774480
  0
VERTEX
  8
2
  6
CONTINUOUS
 10
41.611300
 20
33.374480
  0
SEQEND
  8
2
  6
CONTINUOUS
  0
LINE
  8
2
  6
CONTINUOUS
 10
52.151300
 20
33.124480
 11
52.151300
 21
33.124480
  0
POLYLINE
  8
2
  6
CONTINUOUS
 66
     1
  0
VERTEX
  8
2
  6
CONTINUOUS
 10
52.951300
 20
32.874480
  0
VERTEX
  8
2
  6
CONTINUOUS
 10
52.951300
 20
33.374480
  0
VERTEX
  8
2
  6
CONTINUOUS
 10
51.351300
 20
33.374480
  0
VERTEX
  8
2
  6
CONTINUOUS
 10
51.351300
 20
32.874480
  0
VERTEX
  8
2
  6
CONTINUOUS
 10
52.951300
 20
32.874480
  0
SEQEND
  8
2
  6
CONTINUOUS
  0
LINE
  8
2
  6
CONTINUOUS
 10
36.961300
 20
29.774480
 11
36.961300
 21
29.774480
  0
POLYLINE
  8
2
  6
CONTINUOUS
 66
     1
  0
VERTEX
  8
2
  6
CONTINUOUS
 10
36.711300
 20
26.974480
  0
VERTEX
  8
2
  6
CONTINUOUS
 10
37.211300
 20
26.974480
  0
VERTEX
  8
2
  6
CONTINUOUS
 10
37.211300
 20
32.574480
  0
VERTEX
  8
2
  6
CONTINUOUS
 10
36.711300
 20
32.574480
  0
VERTEX
  8
2
  6
CONTINUOUS
 10
36.711300
 20
26.974480
  0
SEQEND
  8
2
  6
CONTINUOUS
  0
LINE
  8
2
  6
CONTINUOUS
 10
62.861300
 20
29.774480
 11
62.861300
 21
29.774480
  0
POLYLINE
  8
2
  6
CONTINUOUS
 66
     1
  0
VERTEX
  8
2
  6
CONTINUOUS
 10
62.611300
 20
26.974480
  0
VERTEX
  8
2
  6
CONTINUOUS
 10
63.111300
 20
26.974480
  0
VERTEX
  8
2
  6
CONTINUOUS
 10
63.111300
 20
32.574480
  0
VERTEX
  8
2
  6
CONTINUOUS
 10
62.611300
 20
32.574480
  0
VERTEX
  8
2
  6
CONTINUOUS
 10
62.611300
 20
26.974480
  0
SEQEND
  8
2
  6
CONTINUOUS
  0
LINE
  8
2
  6
CONTINUOUS
 10
42.311300
 20
27.224480
 11
42.311300
 21
27.224480
  0
POLYLINE
  8
2
  6
CONTINUOUS
 66
     1
  0
VERTEX
  8
2
  6
CONTINUOUS
 10
43.511300
 20
26.974480
  0
VERTEX
  8
2
  6
CONTINUOUS
 10
43.511300
 20
27.474480
  0
VERTEX
  8
2
  6
CONTINUOUS
 10
41.111300
 20
27.474480
  0
VERTEX
  8
2
  6
CONTINUOUS
 10
41.111300
 20
26.974480
  0
VERTEX
  8
2
  6
CONTINUOUS
 10
43.511300
 20
26.974480
  0
SEQEND
  8
2
  6
CONTINUOUS
  0
LINE
  8
2
  6
CONTINUOUS
 10
54.571300
 20
27.244480
 11
54.571300
 21
27.244480
  0
POLYLINE
  8
2
  6
CONTINUOUS
 66
     1
  0
VERTEX
  8
2
  6
CONTINUOUS
 10
53.371300
 20
27.514480
  0
VERTEX
  8
2
  6
CONTINUOUS
 10
53.371300
 20
26.974480
  0
VERTEX
  8
2
  6
CONTINUOUS
 10
55.771300
 20
26.974480
  0
VERTEX
  8
2
  6
CONTINUOUS
 10
55.771300
 20
27.514480
  0
VERTEX
  8
2
  6
CONTINUOUS
 10
53.371300
 20
27.514480
  0
SEQEND
  8
2
  6
CONTINUOUS
  0
LINE
  8
2
  6
CONTINUOUS
 10
28.611300
 20
23.374480
 11
28.611300
 21
23.374480
  0
POLYLINE
  8
2
  6
CONTINUOUS
 66
     1
  0
VERTEX
  8
2
  6
CONTINUOUS
 10
28.311300
 20
22.374480
  0
VERTEX
  8
2
  6
CONTINUOUS
 10
28.911300
 20
22.374480
  0
VERTEX
  8
2
  6
CONTINUOUS
 10
28.911300
 20
24.374480
  0
VERTEX
  8
2
  6
CONTINUOUS
 10
28.311300
 20
24.374480
  0
VERTEX
  8
2
  6
CONTINUOUS
 10
28.311300
 20
22.374480
  0
SEQEND
  8
2
  6
CONTINUOUS
  0
LINE
  8
2
  6
CONTINUOUS
 10
34.031300
 20
23.174480
 11
34.031300
 21
23.174480
  0
POLYLINE
  8
2
  6
CONTINUOUS
 66
     1
  0
VERTEX
  8
2
  6
CONTINUOUS
 10
33.731300
 20
21.974480
  0
VERTEX
  8
2
  6
CONTINUOUS
 10
34.331300
 20
21.974480
  0
VERTEX
  8
2
  6
CONTINUOUS
 10
34.331300
 20
24.374480
  0
VERTEX
  8
2
  6
CONTINUOUS
 10
33.731300
 20
24.374480
  0
VERTEX
  8
2
  6
CONTINUOUS
 10
33.731300
 20
21.974480
  0
SEQEND
  8
2
  6
CONTINUOUS
  0
LINE
  8
2
  6
CONTINUOUS
 10
65.791300
 20
23.174480
 11
65.791300
 21
23.174480
  0
POLYLINE
  8
2
  6
CONTINUOUS
 66
     1
  0
VERTEX
  8
2
  6
CONTINUOUS
 10
65.491300
 20
21.974480
  0
VERTEX
  8
2
  6
CONTINUOUS
 10
66.091300
 20
21.974480
  0
VERTEX
  8
2
  6
CONTINUOUS
 10
66.091300
 20
24.374480
  0
VERTEX
  8
2
  6
CONTINUOUS
 10
65.491300
 20
24.374480
  0
VERTEX
  8
2
  6
CONTINUOUS
 10
65.491300
 20
21.974480
  0
SEQEND
  8
2
  6
CONTINUOUS
  0
LINE
  8
2
  6
CONTINUOUS
 10
71.211300
 20
23.374480
 11
71.211300
 21
23.374480
  0
POLYLINE
  8
2
  6
CONTINUOUS
 66
     1
  0
VERTEX
  8
2
  6
CONTINUOUS
 10
70.911300
 20
22.374480
  0
VERTEX
  8
2
  6
CONTINUOUS
 10
71.511300
 20
22.374480
  0
VERTEX
  8
2
  6
CONTINUOUS
 10
71.511300
 20
24.374480
  0
VERTEX
  8
2
  6
CONTINUOUS
 10
70.911300
 20
24.374480
  0
VERTEX
  8
2
  6
CONTINUOUS
 10
70.911300
 20
22.374480
  0
SEQEND
  8
2
  6
CONTINUOUS
  0
LINE
  8
2
  6
CONTINUOUS
 10
19.511300
 20
19.150047
 11
19.511300
 21
19.150047
  0
POLYLINE
  8
2
  6
CONTINUOUS
 66
     1
  0
VERTEX
  8
2
  6
CONTINUOUS
 10
18.711300
 20
19.450047
  0
VERTEX
  8
2
  6
CONTINUOUS
 10
18.711300
 20
18.850047
  0
VERTEX
  8
2
  6
CONTINUOUS
 10
20.311300
 20
18.850047
  0
VERTEX
  8
2
  6
CONTINUOUS
 10
20.311300
 20
19.450047
  0
VERTEX
  8
2
  6
CONTINUOUS
 10
18.711300
 20
19.450047
  0
SEQEND
  8
2
  6
CONTINUOUS
  0
LINE
  8
2
  6
CONTINUOUS
 10
45.511300
 20
18.744480
 11
45.511300
 21
18.744480
  0
POLYLINE
  8
2
  6
CONTINUOUS
 66
     1
  0
VERTEX
  8
2
  6
CONTINUOUS
 10
46.711300
 20
18.444480
  0
VERTEX
  8
2
  6
CONTINUOUS
 10
46.711300
 20
19.044480
  0
VERTEX
  8
2
  6
CONTINUOUS
 10
44.311300
 20
19.044480
  0
VERTEX
  8
2
  6
CONTINUOUS
 10
44.311300
 20
18.444480
  0
VERTEX
  8
2
  6
CONTINUOUS
 10
46.711300
 20
18.444480
  0
SEQEND
  8
2
  6
CONTINUOUS
  0
LINE
  8
2
  6
CONTINUOUS
 10
54.311300
 20
18.744480
 11
54.311300
 21
18.744480
  0
POLYLINE
  8
2
  6
CONTINUOUS
 66
     1
  0
VERTEX
  8
2
  6
CONTINUOUS
 10
55.511300
 20
18.444480
  0
VERTEX
  8
2
  6
CONTINUOUS
 10
55.511300
 20
19.044480
  0
VERTEX
  8
2
  6
CONTINUOUS
 10
53.111300
 20
19.044480
  0
VERTEX
  8
2
  6
CONTINUOUS
 10
53.111300
 20
18.444480
  0
VERTEX
  8
2
  6
CONTINUOUS
 10
55.511300
 20
18.444480
  0
SEQEND
  8
2
  6
CONTINUOUS
  0
LINE
  8
2
  6
CONTINUOUS
 10
80.311300
 20
19.150047
 11
80.311300
 21
19.150047
  0
POLYLINE
  8
2
  6
CONTINUOUS
 66
     1
  0
VERTEX
  8
2
  6
CONTINUOUS
 10
79.511300
 20
19.450047
  0
VERTEX
  8
2
  6
CONTINUOUS
 10
79.511300
 20
18.850047
  0
VERTEX
  8
2
  6
CONTINUOUS
 10
81.111300
 20
18.850047
  0
VERTEX
  8
2
  6
CONTINUOUS
 10
81.111300
 20
19.450047
  0
VERTEX
  8
2
  6
CONTINUOUS
 10
79.511300
 20
19.450047
  0
SEQEND
  8
2
  6
CONTINUOUS
  0
LINE
  8
2
  6
CONTINUOUS
 10
22.961300
 20
12.150047
 11
22.961300
 21
12.150047
  0
POLYLINE
  8
2
  6
CONTINUOUS
 66
     1
  0
VERTEX
  8
2
  6
CONTINUOUS
 10
23.211300
 20
13.050047
  0
VERTEX
  8
2
  6
CONTINUOUS
 10
22.711300
 20
13.050047
  0
VERTEX
  8
2
  6
CONTINUOUS
 10
22.711300
 20
11.250047
  0
VERTEX
  8
2
  6
CONTINUOUS
 10
23.211300
 20
11.250047
  0
VERTEX
  8
2
  6
CONTINUOUS
 10
23.211300
 20
13.050047
  0
SEQEND
  8
2
  6
CONTINUOUS
  0
LINE
  8
2
  6
CONTINUOUS
 10
76.861300
 20
12.350047
 11
76.861300
 21
12.350047
  0
POLYLINE
  8
2
  6
CONTINUOUS
 66
     1
  0
VERTEX
  8
2
  6
CONTINUOUS
 10
76.611300
 20
11.250047
  0
VERTEX
  8
2
  6
CONTINUOUS
 10
77.111300
 20
11.250047
  0
VERTEX
  8
2
  6
CONTINUOUS
 10
77.111300
 20
13.450047
  0
VERTEX
  8
2
  6
CONTINUOUS
 10
76.611300
 20
13.450047
  0
VERTEX
  8
2
  6
CONTINUOUS
 10
76.611300
 20
11.250047
  0
SEQEND
  8
2
  6
CONTINUOUS
  0
LINE
  8
2
  6
CONTINUOUS
 10
33.841300
 20
9.194480
 11
33.841300
 21
9.194480
  0
POLYLINE
  8
2
  6
CONTINUOUS
 66
     1
  0
VERTEX
  8
2
  6
CONTINUOUS
 10
34.111300
 20
10.394480
  0
VERTEX
  8
2
  6
CONTINUOUS
 10
33.571300
 20
10.394480
  0
VERTEX
  8
2
  6
CONTINUOUS
 10
33.571300
 20
7.994480
  0
VERTEX
  8
2
  6
CONTINUOUS
 10
34.111300
 20
7.994480
  0
VERTEX
  8
2
  6
CONTINUOUS
 10
34.111300
 20
10.394480
  0
SEQEND
  8
2
  6
CONTINUOUS
  0
LINE
  8
2
  6
CONTINUOUS
 10
44.461300
 20
9.194480
 11
44.461300
 21
9.194480
  0
POLYLINE
  8
2
  6
CONTINUOUS
 66
     1
  0
VERTEX
  8
2
  6
CONTINUOUS
 10
44.731300
 20
10.394480
  0
VERTEX
  8
2
  6
CONTINUOUS
 10
44.191300
 20
10.394480
  0
VERTEX
  8
2
  6
CONTINUOUS
 10
44.191300
 20
7.994480
  0
VERTEX
  8
2
  6
CONTINUOUS
 10
44.731300
 20
7.994480
  0
VERTEX
  8
2
  6
CONTINUOUS
 10
44.731300
 20
10.394480
  0
SEQEND
  8
2
  6
CONTINUOUS
  0
LINE
  8
2
  6
CONTINUOUS
 10
55.361300
 20
9.194480
 11
55.361300
 21
9.194480
  0
POLYLINE
  8
2
  6
CONTINUOUS
 66
     1
  0
VERTEX
  8
2
  6
CONTINUOUS
 10
55.091300
 20
7.994480
  0
VERTEX
  8
2
  6
CONTINUOUS
 10
55.631300
 20
7.994480
  0
VERTEX
  8
2
  6
CONTINUOUS
 10
55.631300
 20
10.394480
  0
VERTEX
  8
2
  6
CONTINUOUS
 10
55.091300
 20
10.394480
  0
VERTEX
  8
2
  6
CONTINUOUS
 10
55.091300
 20
7.994480
  0
SEQEND
  8
2
  6
CONTINUOUS
  0
LINE
  8
2
  6
CONTINUOUS
 10
65.981300
 20
9.194480
 11
65.981300
 21
9.194480
  0
POLYLINE
  8
2
  6
CONTINUOUS
 66
     1
  0
VERTEX
  8
2
  6
CONTINUOUS
 10
65.711300
 20
7.994480
  0
VERTEX
  8
2
  6
CONTINUOUS
 10
66.251300
 20
7.994480
  0
VERTEX
  8
2
  6
CONTINUOUS
 10
66.251300
 20
10.394480
  0
VERTEX
  8
2
  6
CONTINUOUS
 10
65.711300
 20
10.394480
  0
VERTEX
  8
2
  6
CONTINUOUS
 10
65.711300
 20
7.994480
  0
SEQEND
  8
2
  6
CONTINUOUS
  0
LINE
  8
18
  6
CONTINUOUS
 10
43.511300
 20
27.374480
 11
44.111300
 21
27.374480
  0
LINE
  8
18
  6
CONTINUOUS
 10
44.111300
 20
27.374480
 11
44.111300
 21
32.953680
  0
LINE
  8
18
  6
CONTINUOUS
 10
44.111300
 20
32.953680
 11
41.611300
 21
32.953680
  0
LINE
  8
18
  6
CONTINUOUS
 10
58.501300
 20
30.374480
 11
55.671300
 21
30.374480
  0
LINE
  8
18
  6
CONTINUOUS
 10
55.671300
 20
30.374480
 11
55.671300
 21
32.384480
  0
LINE
  8
18
  6
CONTINUOUS
 10
49.901300
 20
30.174080
 11
46.911300
 21
30.174080
  0
LINE
  8
18
  6
CONTINUOUS
 10
46.911300
 20
30.174080
 11
46.911300
 21
27.194480
  0
LINE
  8
18
  6
CONTINUOUS
 10
44.111300
 20
27.374480
 11
46.911300
 21
27.374480
  0
LINE
  8
18
  6
CONTINUOUS
 10
46.911300
 20
27.374480
 11
46.918867
 21
30.174080
  0
LINE
  8
18
  6
CONTINUOUS
 10
46.918867
 20
30.174080
 11
44.111300
 21
30.174080
  0
LINE
  8
18
  6
CONTINUOUS
 10
44.111300
 20
30.174080
 11
44.111300
 21
27.374480
  0
LINE
  8
18
  6
CONTINUOUS
 10
44.111300
 20
30.174080
 11
49.901300
 21
30.174080
  0
LINE
  8
18
  6
CONTINUOUS
 10
49.901300
 20
32.973680
 11
44.111300
 21
32.973680
  0
LINE
  8
18
  6
CONTINUOUS
 10
44.111300
 20
32.973680
 11
44.111300
 21
32.953680
  0
LINE
  8
18
  6
CONTINUOUS
 10
44.111300
 20
32.953680
 11
44.111300
 21
30.174080
  0
POLYLINE
  8
2
  6
CONTINUOUS
 66
     1
  0
VERTEX
  8
2
  6
CONTINUOUS
 10
38.711300
 20
22.774480
  0
VERTEX
  8
2
  6
CONTINUOUS
 10
38.711300
 20
21.554480
  0
VERTEX
  8
2
  6
CONTINUOUS
 10
44.311300
 20
21.554480
  0
VERTEX
  8
2
  6
CONTINUOUS
 10
44.311300
 20
22.774480
  0
VERTEX
  8
2
  6
CONTINUOUS
 10
38.711300
 20
22.774480
  0
SEQEND
  8
2
  6
CONTINUOUS
  0
LINE
  8
2
  6
CONTINUOUS
 10
38.711300
 20
22.774480
 11
44.311300
 21
21.554480
  0
LINE
  8
2
  6
CONTINUOUS
 10
38.711300
 20
21.554480
 11
44.311300
 21
22.774480
  0
POLYLINE
  8
2
  6
CONTINUOUS
 66
     1
  0
VERTEX
  8
2
  6
CONTINUOUS
 10
61.111300
 20
22.774480
  0
VERTEX
  8
2
  6
CONTINUOUS
 10
55.511300
 20
22.774480
  0
VERTEX
  8
2
  6
CONTINUOUS
 10
55.511300
 20
21.554480
  0
VERTEX
  8
2
  6
CONTINUOUS
 10
61.111300
 20
21.554480
  0
VERTEX
  8
2
  6
CONTINUOUS
 10
61.111300
 20
22.774480
  0
SEQEND
  8
2
  6
CONTINUOUS
  0
LINE
  8
2
  6
CONTINUOUS
 10
61.111300
 20
22.774480
 11
55.511300
 21
21.554480
  0
LINE
  8
2
  6
CONTINUOUS
 10
55.511300
 20
22.774480
 11
61.111300
 21
21.554480
  0
POLYLINE
  8
2
  6
CONTINUOUS
 66
     1
  0
VERTEX
  8
2
  6
CONTINUOUS
 10
47.311300
 20
21.374480
  0
VERTEX
  8
2
  6
CONTINUOUS
 10
47.311300
 20
20.174480
  0
VERTEX
  8
2
  6
CONTINUOUS
 10
52.511300
 20
20.174480
  0
VERTEX
  8
2
  6
CONTINUOUS
 10
52.511300
 20
21.374480
  0
VERTEX
  8
2
  6
CONTINUOUS
 10
47.311300
 20
21.374480
  0
SEQEND
  8
2
  6
CONTINUOUS
  0
LINE
  8
2
  6
CONTINUOUS
 10
47.311300
 20
21.374480
 11
52.511300
 21
20.174480
  0
LINE
  8
2
  6
CONTINUOUS
 10
47.311300
 20
20.174480
 11
52.511300
 21
21.374480
  0
POLYLINE
  8
2
  6
CONTINUOUS
 66
     1
  0
VERTEX
  8
2
  6
CONTINUOUS
 10
31.311300
 20
21.174480
  0
VERTEX
  8
2
  6
CONTINUOUS
 10
31.311300
 20
19.974480
  0
VERTEX
  8
2
  6
CONTINUOUS
 10
33.731300
 20
19.974480
  0
VERTEX
  8
2
  6
CONTINUOUS
 10
33.731300
 20
21.174480
  0
VERTEX
  8
2
  6
CONTINUOUS
 10
31.311300
 20
21.174480
  0
SEQEND
  8
2
  6
CONTINUOUS
  0
LINE
  8
2
  6
CONTINUOUS
 10
31.311300
 20
21.174480
 11
33.731300
 21
19.974480
  0
LINE
  8
2
  6
CONTINUOUS
 10
31.311300
 20
19.974480
 11
33.731300
 21
21.174480
  0
POLYLINE
  8
2
  6
CONTINUOUS
 66
     1
  0
VERTEX
  8
2
  6
CONTINUOUS
 10
68.511300
 20
21.174480
  0
VERTEX
  8
2
  6
CONTINUOUS
 10
66.091300
 20
21.174480
  0
VERTEX
  8
2
  6
CONTINUOUS
 10
66.091300
 20
19.974480
  0
VERTEX
  8
2
  6
CONTINUOUS
 10
68.511300
 20
19.974480
  0
VERTEX
  8
2
  6
CONTINUOUS
 10
68.511300
 20
21.174480
  0
SEQEND
  8
2
  6
CONTINUOUS
  0
LINE
  8
2
  6
CONTINUOUS
 10
68.511300
 20
21.174480
 11
66.091300
 21
19.974480
  0
LINE
  8
2
  6
CONTINUOUS
 10
66.091300
 20
21.174480
 11
68.511300
 21
19.974480
  0
POLYLINE
  8
2
  6
CONTINUOUS
 66
     1
  0
VERTEX
  8
2
  6
CONTINUOUS
 10
48.178982
 20
25.091220
  0
VERTEX
  8
2
  6
CONTINUOUS
 10
48.182979
 20
22.704424
  0
VERTEX
  8
2
  6
CONTINUOUS
 10
48.904945
 20
22.048639
  0
VERTEX
  8
2
  6
CONTINUOUS
 10
48.699533
 20
22.191137
  0
VERTEX
  8
2
  6
CONTINUOUS
 10
48.904945
 20
22.048639
  0
VERTEX
  8
2
  6
CONTINUOUS
 10
48.743413
 20
22.239446
  0
SEQEND
  8
2
  6
CONTINUOUS
  0
POLYLINE
  8
2
  6
CONTINUOUS
 66
     1
  0
VERTEX
  8
2
  6
CONTINUOUS
 10
13.898885
 20
43.187728
  0
VERTEX
  8
2
  6
CONTINUOUS
 10
13.898885
 20
45.440352
  0
VERTEX
  8
2
  6
CONTINUOUS
 10
14.383357
 20
46.418105
  0
VERTEX
  8
2
  6
CONTINUOUS
 10
14.302550
 20
46.181525
  0
VERTEX
  8
2
  6
CONTINUOUS
 10
14.383357
 20
46.418105
  0
VERTEX
  8
2
  6
CONTINUOUS
 10
14.244072
 20
46.210500
  0
SEQEND
  8
2
  6
CONTINUOUS
  0
POLYLINE
  8
2
  6
CONTINUOUS
 66
     1
  0
VERTEX
  8
2
  6
CONTINUOUS
 10
84.783832
 20
43.064680
  0
VERTEX
  8
2
  6
CONTINUOUS
 10
84.783832
 20
45.317304
  0
VERTEX
  8
2
  6
CONTINUOUS
 10
85.268304
 20
46.295057
  0
VERTEX
  8
2
  6
CONTINUOUS
 10
85.187498
 20
46.058476
  0
VERTEX
  8
2
  6
CONTINUOUS
 10
85.268304
 20
46.295057
  0
VERTEX
  8
2
  6
CONTINUOUS
 10
85.129019
 20
46.087452
  0
SEQEND
  8
2
  6
CONTINUOUS
  0
LINE
  8
2
  6
CONTINUOUS
 10
26.447405
 20
19.100047
 11
26.447405
 21
16.630141
  0
LINE
  8
2
  6
CONTINUOUS
 10
26.204988
 20
18.850047
 11
26.697405
 21
18.850047
  0
LINE
  8
2
  6
CONTINUOUS
 10
25.686995
 20
16.880141
 11
26.697405
 21
16.880141
  0
LINE
  8
2
  6
CONTINUOUS
 10
26.359017
 20
18.938436
 11
26.535794
 21
18.761659
  0
LINE
  8
2
  6
CONTINUOUS
 10
26.359017
 20
16.968529
 11
26.535794
 21
16.791753
  0
LINE
  8
2
  6
CONTINUOUS
 10
25.954988
 20
18.850047
 11
25.954988
 21
18.850047
  0
LINE
  8
2
  6
CONTINUOUS
 10
25.436995
 20
16.880141
 11
25.436995
 21
16.880141
  0
LINE
  8
2
  6
CONTINUOUS
 10
19.799510
 20
37.298667
 11
19.799510
 21
39.900047
  0
LINE
  8
2
  6
CONTINUOUS
 10
18.867548
 20
37.548667
 11
20.049510
 21
37.548667
  0
LINE
  8
2
  6
CONTINUOUS
 10
20.011750
 20
39.650047
 11
20.049510
 21
39.650047
  0
LINE
  8
2
  6
CONTINUOUS
 10
19.887898
 20
37.460279
 11
19.711122
 21
37.637055
  0
LINE
  8
2
  6
CONTINUOUS
 10
19.887898
 20
39.561659
 11
19.711122
 21
39.738436
  0
LINE
  8
2
  6
CONTINUOUS
 10
18.617548
 20
37.548667
 11
18.617548
 21
37.548667
  0
LINE
  8
2
  6
CONTINUOUS
 10
19.761750
 20
39.650047
 11
19.761750
 21
39.650047
  0
LINE
  8
2
  6
CONTINUOUS
 10
75.112325
 20
19.100047
 11
75.112325
 21
16.630141
  0
LINE
  8
2
  6
CONTINUOUS
 10
74.117612
 20
18.850047
 11
75.362325
 21
18.850047
  0
LINE
  8
2
  6
CONTINUOUS
 10
74.300656
 20
16.880141
 11
75.362325
 21
16.880141
  0
LINE
  8
2
  6
CONTINUOUS
 10
75.023937
 20
18.938436
 11
75.200714
 21
18.761659
  0
LINE
  8
2
  6
CONTINUOUS
 10
75.023937
 20
16.968529
 11
75.200714
 21
16.791753
  0
LINE
  8
2
  6
CONTINUOUS
 10
73.867612
 20
18.850047
 11
73.867612
 21
18.850047
  0
LINE
  8
2
  6
CONTINUOUS
 10
74.050656
 20
16.880141
 11
74.050656
 21
16.880141
  0
LINE
  8
2
  6
CONTINUOUS
 10
81.623918
 20
37.298667
 11
81.623918
 21
39.900047
  0
LINE
  8
2
  6
CONTINUOUS
 10
81.050207
 20
37.548667
 11
81.873918
 21
37.548667
  0
LINE
  8
2
  6
CONTINUOUS
 10
80.310850
 20
39.650047
 11
81.873918
 21
39.650047
  0
LINE
  8
2
  6
CONTINUOUS
 10
81.712307
 20
37.460279
 11
81.535530
 21
37.637055
  0
LINE
  8
2
  6
CONTINUOUS
 10
81.712307
 20
39.561659
 11
81.535530
 21
39.738436
  0
LINE
  8
2
  6
CONTINUOUS
 10
80.800207
 20
37.548667
 11
80.800207
 21
37.548667
  0
LINE
  8
2
  6
CONTINUOUS
 10
80.060850
 20
39.650047
 11
80.060850
 21
39.650047
  0
LINE
  8
2
  6
CONTINUOUS
 10
52.093457
 20
25.056980
 11
52.093457
 21
27.224480
  0
LINE
  8
2
  6
CONTINUOUS
 10
51.488192
 20
25.306980
 11
52.343457
 21
25.306980
  0
LINE
  8
2
  6
CONTINUOUS
 10
52.073216
 20
26.974480
 11
52.343457
 21
26.974480
  0
LINE
  8
2
  6
CONTINUOUS
 10
52.181845
 20
25.218592
 11
52.005069
 21
25.395368
  0
LINE
  8
2
  6
CONTINUOUS
 10
52.181845
 20
26.886092
 11
52.005069
 21
27.062868
  0
LINE
  8
2
  6
CONTINUOUS
 10
51.238192
 20
25.306980
 11
51.238192
 21
25.306980
  0
LINE
  8
2
  6
CONTINUOUS
 10
51.823216
 20
26.974480
 11
51.823216
 21
26.974480
  0
LINE
  8
2
  6
CONTINUOUS
 10
58.115814
 20
23.992798
 11
58.115814
 21
27.224480
  0
LINE
  8
2
  6
CONTINUOUS
 10
57.443099
 20
24.242798
 11
58.365814
 21
24.242798
  0
LINE
  8
2
  6
CONTINUOUS
 10
58.250471
 20
26.974480
 11
58.365814
 21
26.974480
  0
LINE
  8
2
  6
CONTINUOUS
 10
58.204203
 20
24.154410
 11
58.027426
 21
24.331186
  0
LINE
  8
2
  6
CONTINUOUS
 10
58.204203
 20
26.886092
 11
58.027426
 21
27.062868
  0
LINE
  8
2
  6
CONTINUOUS
 10
57.193099
 20
24.242798
 11
57.193099
 21
24.242798
  0
LINE
  8
2
  6
CONTINUOUS
 10
58.000471
 20
26.974480
 11
58.000471
 21
26.974480
  0
LINE
  8
2
  6
CONTINUOUS
 10
28.176370
 20
25.400047
 11
28.176370
 21
26.659480
  0
LINE
  8
2
  6
CONTINUOUS
 10
26.561300
 20
25.650047
 11
28.426370
 21
25.650047
  0
LINE
  8
2
  6
CONTINUOUS
 10
27.563257
 20
26.409480
 11
28.426370
 21
26.409480
  0
LINE
  8
2
  6
CONTINUOUS
 10
28.264758
 20
25.561659
 11
28.087982
 21
25.738436
  0
LINE
  8
2
  6
CONTINUOUS
 10
28.264758
 20
26.321092
 11
28.087982
 21
26.497868
  0
LINE
  8
2
  6
CONTINUOUS
 10
26.311300
 20
25.650047
 11
26.311300
 21
25.650047
  0
LINE
  8
2
  6
CONTINUOUS
 10
27.313257
 20
26.409480
 11
27.313257
 21
26.409480
  0
LINE
  8
2
  6
CONTINUOUS
 10
14.892604
 20
46.992054
 11
13.288026
 21
46.992054
  0
LINE
  8
2
  6
CONTINUOUS
 10
14.892604
 20
46.992054
 11
14.644742
 21
46.959423
  0
LINE
  8
2
  6
CONTINUOUS
 10
14.892604
 20
46.992054
 11
14.644742
 21
47.024686
  0
LINE
  8
2
  6
CONTINUOUS
 10
13.288026
 20
46.992054
 11
13.535887
 21
47.024686
  0
LINE
  8
2
  6
CONTINUOUS
 10
13.288026
 20
46.992054
 11
13.535887
 21
46.959423
  0
LINE
  8
2
  6
CONTINUOUS
 10
14.892604
 20
46.173301
 11
14.892604
 21
46.173301
  0
LINE
  8
2
  6
CONTINUOUS
 10
13.288026
 20
46.173301
 11
13.288026
 21
46.173301
  0
CIRCLE
  8
2
  6
CONTINUOUS
 10
14.500810
 20
46.992054
 40
0.041625
  0
CIRCLE
  8
2
  6
CONTINUOUS
 10
14.500810
 20
46.992054
 40
0.020750
  0
LINE
  8
6
  6
CONTINUOUS
 10
14.580810
 20
45.360049
 11
14.500810
 21
45.360049
  0
LINE
  8
6
  6
CONTINUOUS
 10
14.500810
 20
45.360049
 11
14.500810
 21
47.800049
  0
LINE
  8
6
  6
CONTINUOUS
 10
14.500810
 20
47.800049
 11
15.180810
 21
47.800049
  0
LINE
  8
2
  6
CONTINUOUS
 10
84.929996
 20
46.845297
 11
86.534574
 21
46.845297
  0
LINE
  8
2
  6
CONTINUOUS
 10
84.929996
 20
46.845297
 11
85.177858
 21
46.877929
  0
LINE
  8
2
  6
CONTINUOUS
 10
84.929996
 20
46.845297
 11
85.177858
 21
46.812666
  0
LINE
  8
2
  6
CONTINUOUS
 10
86.534574
 20
46.845297
 11
86.286713
 21
46.812666
  0
LINE
  8
2
  6
CONTINUOUS
 10
86.534574
 20
46.845297
 11
86.286713
 21
46.877929
  0
LINE
  8
2
  6
CONTINUOUS
 10
84.929996
 20
46.173301
 11
84.929996
 21
46.173301
  0
LINE
  8
2
  6
CONTINUOUS
 10
86.534574
 20
46.173301
 11
86.534574
 21
46.173301
  0
CIRCLE
  8
2
  6
CONTINUOUS
 10
85.421796
 20
46.845297
 40
0.041625
  0
CIRCLE
  8
2
  6
CONTINUOUS
 10
85.421796
 20
46.845297
 40
0.020750
  0
LINE
  8
6
  6
CONTINUOUS
 10
85.501796
 20
45.360049
 11
85.421796
 21
45.360049
  0
LINE
  8
6
  6
CONTINUOUS
 10
85.421796
 20
45.360049
 11
85.421796
 21
47.800049
  0
LINE
  8
6
  6
CONTINUOUS
 10
85.421796
 20
47.800049
 11
86.101796
 21
47.800049
  0
LINE
  8
2
  6
CONTINUOUS
 10
22.165548
 20
40.661858
 11
14.845548
 21
40.661858
  0
LINE
  8
2
  6
CONTINUOUS
 10
22.165548
 20
40.661858
 11
21.917687
 21
40.629226
  0
LINE
  8
2
  6
CONTINUOUS
 10
22.165548
 20
40.661858
 11
21.917687
 21
40.694489
  0
LINE
  8
2
  6
CONTINUOUS
 10
14.845548
 20
40.661858
 11
15.093409
 21
40.694489
  0
LINE
  8
2
  6
CONTINUOUS
 10
14.845548
 20
40.661858
 11
15.093409
 21
40.629226
  0
LINE
  8
2
  6
CONTINUOUS
 10
22.165548
 20
38.861870
 11
22.165548
 21
38.861870
  0
LINE
  8
2
  6
CONTINUOUS
 10
14.845548
 20
38.861870
 11
14.845548
 21
38.861870
  0
CIRCLE
  8
2
  6
CONTINUOUS
 10
18.537548
 20
40.661858
 40
0.041625
  0
CIRCLE
  8
2
  6
CONTINUOUS
 10
18.537548
 20
40.661858
 40
0.020750
  0
LINE
  8
6
  6
CONTINUOUS
 10
18.617548
 20
37.548667
 11
18.537548
 21
37.548667
  0
LINE
  8
6
  6
CONTINUOUS
 10
18.537548
 20
37.548667
 11
18.537548
 21
41.488667
  0
LINE
  8
6
  6
CONTINUOUS
 10
18.537548
 20
41.488667
 11
18.617548
 21
41.488667
  0
LINE
  8
2
  6
CONTINUOUS
 10
29.511300
 20
35.150928
 11
22.665548
 21
35.150928
  0
LINE
  8
2
  6
CONTINUOUS
 10
29.511300
 20
35.150928
 11
29.263439
 21
35.118296
  0
LINE
  8
2
  6
CONTINUOUS
 10
29.511300
 20
35.150928
 11
29.263439
 21
35.183559
  0
LINE
  8
2
  6
CONTINUOUS
 10
22.665548
 20
35.150928
 11
22.913409
 21
35.183559
  0
LINE
  8
2
  6
CONTINUOUS
 10
22.665548
 20
35.150928
 11
22.913409
 21
35.118296
  0
LINE
  8
2
  6
CONTINUOUS
 10
29.511300
 20
33.226550
 11
29.511300
 21
33.226550
  0
LINE
  8
2
  6
CONTINUOUS
 10
22.665548
 20
33.226550
 11
22.665548
 21
33.226550
  0
CIRCLE
  8
2
  6
CONTINUOUS
 10
26.088424
 20
35.150928
 40
0.041625
  0
CIRCLE
  8
2
  6
CONTINUOUS
 10
26.088424
 20
35.150928
 40
0.020750
  0
LINE
  8
6
  6
CONTINUOUS
 10
26.228424
 20
31.600046
 11
26.088424
 21
31.600046
  0
LINE
  8
6
  6
CONTINUOUS
 10
26.088424
 20
31.600046
 11
26.088424
 21
36.480046
  0
LINE
  8
6
  6
CONTINUOUS
 10
26.088424
 20
36.480046
 11
26.168424
 21
36.480046
  0
LINE
  8
2
  6
CONTINUOUS
 10
34.111300
 20
35.017165
 11
29.511300
 21
35.017165
  0
LINE
  8
2
  6
CONTINUOUS
 10
34.111300
 20
35.017165
 11
33.863439
 21
34.984534
  0
LINE
  8
2
  6
CONTINUOUS
 10
34.111300
 20
35.017165
 11
33.863439
 21
35.049797
  0
LINE
  8
2
  6
CONTINUOUS
 10
29.511300
 20
35.017165
 11
29.759161
 21
35.049797
  0
LINE
  8
2
  6
CONTINUOUS
 10
29.511300
 20
35.017165
 11
29.759161
 21
34.984534
  0
LINE
  8
2
  6
CONTINUOUS
 10
34.111300
 20
33.209880
 11
34.111300
 21
33.209880
  0
LINE
  8
2
  6
CONTINUOUS
 10
29.511300
 20
33.209880
 11
29.511300
 21
33.209880
  0
CIRCLE
  8
2
  6
CONTINUOUS
 10
32.034966
 20
35.017165
 40
0.041625
  0
CIRCLE
  8
2
  6
CONTINUOUS
 10
32.034966
 20
35.017165
 40
0.020750
  0
LINE
  8
6
  6
CONTINUOUS
 10
32.174966
 20
31.550046
 11
32.034966
 21
31.550046
  0
LINE
  8
6
  6
CONTINUOUS
 10
32.034966
 20
31.550046
 11
32.034966
 21
36.530046
  0
LINE
  8
6
  6
CONTINUOUS
 10
32.034966
 20
36.530046
 11
32.714966
 21
36.530046
  0
LINE
  8
2
  6
CONTINUOUS
 10
22.285548
 20
35.135312
 11
18.905765
 21
35.135312
  0
LINE
  8
2
  6
CONTINUOUS
 10
22.285548
 20
35.135312
 11
22.037687
 21
35.102681
  0
LINE
  8
2
  6
CONTINUOUS
 10
22.285548
 20
35.135312
 11
22.037687
 21
35.167944
  0
LINE
  8
2
  6
CONTINUOUS
 10
18.905765
 20
35.135312
 11
19.153627
 21
35.167944
  0
LINE
  8
2
  6
CONTINUOUS
 10
18.905765
 20
35.135312
 11
19.153627
 21
35.102681
  0
LINE
  8
2
  6
CONTINUOUS
 10
22.285548
 20
33.349907
 11
22.285548
 21
33.349907
  0
LINE
  8
2
  6
CONTINUOUS
 10
18.905765
 20
33.349907
 11
18.905765
 21
33.349907
  0
CIRCLE
  8
2
  6
CONTINUOUS
 10
20.855356
 20
35.135312
 40
0.041625
  0
CIRCLE
  8
2
  6
CONTINUOUS
 10
20.855356
 20
35.135312
 40
0.020750
  0
LINE
  8
6
  6
CONTINUOUS
 10
21.015356
 20
31.970046
 11
20.855356
 21
31.970046
  0
LINE
  8
6
  6
CONTINUOUS
 10
20.855356
 20
31.970046
 11
20.855356
 21
36.110046
  0
LINE
  8
6
  6
CONTINUOUS
 10
20.855356
 20
36.110046
 11
20.955356
 21
36.110046
  0
LINE
  8
2
  6
CONTINUOUS
 10
36.711300
 20
34.751444
 11
34.111300
 21
34.751444
  0
LINE
  8
2
  6
CONTINUOUS
 10
36.711300
 20
34.751444
 11
36.463439
 21
34.718813
  0
LINE
  8
2
  6
CONTINUOUS
 10
36.711300
 20
34.751444
 11
36.463439
 21
34.784076
  0
LINE
  8
2
  6
CONTINUOUS
 10
34.111300
 20
34.751444
 11
34.359161
 21
34.784076
  0
LINE
  8
2
  6
CONTINUOUS
 10
34.111300
 20
34.751444
 11
34.359161
 21
34.718813
  0
LINE
  8
2
  6
CONTINUOUS
 10
36.711300
 20
33.506606
 11
36.711300
 21
33.506606
  0
LINE
  8
2
  6
CONTINUOUS
 10
34.111300
 20
33.506606
 11
34.111300
 21
33.506606
  0
CIRCLE
  8
2
  6
CONTINUOUS
 10
35.435300
 20
34.751444
 40
0.041625
  0
CIRCLE
  8
2
  6
CONTINUOUS
 10
35.435300
 20
34.751444
 40
0.020750
  0
LINE
  8
6
  6
CONTINUOUS
 10
35.555300
 20
32.440046
 11
35.435300
 21
32.440046
  0
LINE
  8
6
  6
CONTINUOUS
 10
35.435300
 20
32.440046
 11
35.435300
 21
35.640046
  0
LINE
  8
6
  6
CONTINUOUS
 10
35.435300
 20
35.640046
 11
35.515300
 21
35.640046
  0
LINE
  8
2
  6
CONTINUOUS
 10
14.845548
 20
40.219809
 11
10.809725
 21
40.219809
  0
LINE
  8
2
  6
CONTINUOUS
 10
14.845548
 20
40.219809
 11
14.597687
 21
40.187178
  0
LINE
  8
2
  6
CONTINUOUS
 10
14.845548
 20
40.219809
 11
14.597687
 21
40.252441
  0
LINE
  8
2
  6
CONTINUOUS
 10
10.809725
 20
40.219809
 11
11.057587
 21
40.252441
  0
LINE
  8
2
  6
CONTINUOUS
 10
10.809725
 20
40.219809
 11
11.057587
 21
40.187178
  0
LINE
  8
2
  6
CONTINUOUS
 10
14.845548
 20
40.296653
 11
14.845548
 21
40.296653
  0
LINE
  8
2
  6
CONTINUOUS
 10
10.809725
 20
40.296653
 11
10.809725
 21
40.296653
  0
CIRCLE
  8
2
  6
CONTINUOUS
 10
12.870374
 20
40.219809
 40
0.041625
  0
CIRCLE
  8
2
  6
CONTINUOUS
 10
12.870374
 20
40.219809
 40
0.020750
  0
LINE
  8
6
  6
CONTINUOUS
 10
13.590374
 20
39.700046
 11
12.870374
 21
39.700046
  0
LINE
  8
6
  6
CONTINUOUS
 10
12.870374
 20
39.700046
 11
12.870374
 21
41.490046
  0
LINE
  8
6
  6
CONTINUOUS
 10
12.870374
 20
41.490046
 11
12.950374
 21
41.490046
  0
LINE
  8
2
  6
CONTINUOUS
 10
26.145297
 20
25.945083
 11
19.091300
 21
25.945083
  0
LINE
  8
2
  6
CONTINUOUS
 10
26.145297
 20
25.945083
 11
25.897435
 21
25.912451
  0
LINE
  8
2
  6
CONTINUOUS
 10
26.145297
 20
25.945083
 11
25.897435
 21
25.977714
  0
LINE
  8
2
  6
CONTINUOUS
 10
19.091300
 20
25.945083
 11
19.339161
 21
25.977714
  0
LINE
  8
2
  6
CONTINUOUS
 10
19.091300
 20
25.945083
 11
19.339161
 21
25.912451
  0
LINE
  8
2
  6
CONTINUOUS
 10
26.145297
 20
24.929941
 11
26.145297
 21
24.929941
  0
LINE
  8
2
  6
CONTINUOUS
 10
19.091300
 20
24.929941
 11
19.091300
 21
24.929941
  0
CIRCLE
  8
2
  6
CONTINUOUS
 10
22.650300
 20
25.945083
 40
0.041625
  0
CIRCLE
  8
2
  6
CONTINUOUS
 10
22.650300
 20
25.945083
 40
0.020750
  0
LINE
  8
6
  6
CONTINUOUS
 10
22.730300
 20
23.870048
 11
22.650300
 21
23.870048
  0
LINE
  8
6
  6
CONTINUOUS
 10
22.650300
 20
23.870048
 11
22.650300
 21
27.050048
  0
LINE
  8
6
  6
CONTINUOUS
 10
22.650300
 20
27.050048
 11
22.790300
 21
27.050048
  0
LINE
  8
2
  6
CONTINUOUS
 10
20.699105
 20
19.752706
 11
19.091300
 21
19.752706
  0
LINE
  8
2
  6
CONTINUOUS
 10
20.699105
 20
19.752706
 11
20.451244
 21
19.720074
  0
LINE
  8
2
  6
CONTINUOUS
 10
20.699105
 20
19.752706
 11
20.451244
 21
19.785337
  0
LINE
  8
2
  6
CONTINUOUS
 10
19.091300
 20
19.752706
 11
19.339161
 21
19.785337
  0
LINE
  8
2
  6
CONTINUOUS
 10
19.091300
 20
19.752706
 11
19.339161
 21
19.720074
  0
LINE
  8
2
  6
CONTINUOUS
 10
20.699105
 20
19.633308
 11
20.699105
 21
19.633308
  0
LINE
  8
2
  6
CONTINUOUS
 10
19.091300
 20
19.633308
 11
19.091300
 21
19.633308
  0
CIRCLE
  8
2
  6
CONTINUOUS
 10
20.062891
 20
19.752706
 40
0.041625
  0
CIRCLE
  8
2
  6
CONTINUOUS
 10
20.062891
 20
19.752706
 40
0.020750
  0
LINE
  8
6
  6
CONTINUOUS
 10
20.762891
 20
18.900048
 11
20.062891
 21
18.900048
  0
LINE
  8
6
  6
CONTINUOUS
 10
20.062891
 20
18.900048
 11
20.062891
 21
21.100048
  0
LINE
  8
6
  6
CONTINUOUS
 10
20.062891
 20
21.100048
 11
20.162891
 21
21.100048
  0
LINE
  8
2
  6
CONTINUOUS
 10
28.311300
 20
19.720054
 11
22.916688
 21
19.720054
  0
LINE
  8
2
  6
CONTINUOUS
 10
28.311300
 20
19.720054
 11
28.063439
 21
19.687422
  0
LINE
  8
2
  6
CONTINUOUS
 10
28.311300
 20
19.720054
 11
28.063439
 21
19.752685
  0
LINE
  8
2
  6
CONTINUOUS
 10
22.916688
 20
19.720054
 11
23.164549
 21
19.752685
  0
LINE
  8
2
  6
CONTINUOUS
 10
22.916688
 20
19.720054
 11
23.164549
 21
19.687422
  0
LINE
  8
2
  6
CONTINUOUS
 10
28.311300
 20
18.160013
 11
28.311300
 21
18.160013
  0
LINE
  8
2
  6
CONTINUOUS
 10
22.916688
 20
18.160013
 11
22.916688
 21
18.160013
  0
CIRCLE
  8
2
  6
CONTINUOUS
 10
25.356995
 20
19.720054
 40
0.041625
  0
CIRCLE
  8
2
  6
CONTINUOUS
 10
25.356995
 20
19.720054
 40
0.020750
  0
LINE
  8
6
  6
CONTINUOUS
 10
25.436995
 20
16.880141
 11
25.356995
 21
16.880141
  0
LINE
  8
6
  6
CONTINUOUS
 10
25.356995
 20
16.880141
 11
25.356995
 21
20.720141
  0
LINE
  8
6
  6
CONTINUOUS
 10
25.356995
 20
20.720141
 11
25.436995
 21
20.720141
  0
LINE
  8
2
  6
CONTINUOUS
 10
24.265192
 20
11.901822
 11
23.211300
 21
11.901822
  0
LINE
  8
2
  6
CONTINUOUS
 10
24.265192
 20
11.901822
 11
24.017330
 21
11.869191
  0
LINE
  8
2
  6
CONTINUOUS
 10
24.265192
 20
11.901822
 11
24.017330
 21
11.934454
  0
LINE
  8
2
  6
CONTINUOUS
 10
23.211300
 20
11.901822
 11
23.459161
 21
11.934454
  0
LINE
  8
2
  6
CONTINUOUS
 10
23.211300
 20
11.901822
 11
23.459161
 21
11.869191
  0
LINE
  8
2
  6
CONTINUOUS
 10
24.265192
 20
11.979979
 11
24.265192
 21
11.979979
  0
LINE
  8
2
  6
CONTINUOUS
 10
23.211300
 20
11.979979
 11
23.211300
 21
11.979979
  0
CIRCLE
  8
2
  6
CONTINUOUS
 10
24.020126
 20
11.901822
 40
0.041625
  0
CIRCLE
  8
2
  6
CONTINUOUS
 10
24.020126
 20
11.901822
 40
0.020750
  0
LINE
  8
6
  6
CONTINUOUS
 10
24.700126
 20
11.300047
 11
24.020126
 21
11.300047
  0
LINE
  8
6
  6
CONTINUOUS
 10
24.020126
 20
11.300047
 11
24.020126
 21
13.340047
  0
LINE
  8
6
  6
CONTINUOUS
 10
24.020126
 20
13.340047
 11
24.100126
 21
13.340047
  0
LINE
  8
2
  6
CONTINUOUS
 10
38.711208
 20
20.683221
 11
34.111300
 21
20.683221
  0
LINE
  8
2
  6
CONTINUOUS
 10
38.711208
 20
20.683221
 11
38.463347
 21
20.650590
  0
LINE
  8
2
  6
CONTINUOUS
 10
38.711208
 20
20.683221
 11
38.463347
 21
20.715853
  0
LINE
  8
2
  6
CONTINUOUS
 10
34.111300
 20
20.683221
 11
34.359161
 21
20.715853
  0
LINE
  8
2
  6
CONTINUOUS
 10
34.111300
 20
20.683221
 11
34.359161
 21
20.650590
  0
LINE
  8
2
  6
CONTINUOUS
 10
38.711208
 20
20.683221
 11
38.711208
 21
20.683221
  0
LINE
  8
2
  6
CONTINUOUS
 10
34.111300
 20
20.683221
 11
34.111300
 21
20.683221
  0
CIRCLE
  8
2
  6
CONTINUOUS
 10
36.395254
 20
20.683221
 40
0.041625
  0
CIRCLE
  8
2
  6
CONTINUOUS
 10
36.395254
 20
20.683221
 40
0.020750
  0
LINE
  8
6
  6
CONTINUOUS
 10
36.535254
 20
19.336689
 11
36.395254
 21
19.336689
  0
LINE
  8
6
  6
CONTINUOUS
 10
36.395254
 20
19.336689
 11
36.395254
 21
23.376689
  0
LINE
  8
6
  6
CONTINUOUS
 10
36.395254
 20
23.376689
 11
36.515254
 21
23.376689
  0
LINE
  8
2
  6
CONTINUOUS
 10
52.511300
 20
19.373991
 11
47.311300
 21
19.373991
  0
LINE
  8
2
  6
CONTINUOUS
 10
52.511300
 20
19.373991
 11
52.263439
 21
19.341360
  0
LINE
  8
2
  6
CONTINUOUS
 10
52.511300
 20
19.373991
 11
52.263439
 21
19.406623
  0
LINE
  8
2
  6
CONTINUOUS
 10
47.311300
 20
19.373991
 11
47.559161
 21
19.406623
  0
LINE
  8
2
  6
CONTINUOUS
 10
47.311300
 20
19.373991
 11
47.559161
 21
19.341360
  0
LINE
  8
2
  6
CONTINUOUS
 10
52.511300
 20
17.751028
 11
52.511300
 21
17.751028
  0
LINE
  8
2
  6
CONTINUOUS
 10
47.311300
 20
17.751028
 11
47.311300
 21
17.751028
  0
CIRCLE
  8
2
  6
CONTINUOUS
 10
49.347422
 20
19.373991
 40
0.041625
  0
CIRCLE
  8
2
  6
CONTINUOUS
 10
49.347422
 20
19.373991
 40
0.020750
  0
LINE
  8
6
  6
CONTINUOUS
 10
49.467422
 20
16.564480
 11
49.347422
 21
16.564480
  0
LINE
  8
6
  6
CONTINUOUS
 10
49.347422
 20
16.564480
 11
49.347422
 21
20.124480
  0
LINE
  8
6
  6
CONTINUOUS
 10
49.347422
 20
20.124480
 11
49.467422
 21
20.124480
  0
LINE
  8
2
  6
CONTINUOUS
 10
55.131300
 20
19.650077
 11
52.511300
 21
19.650077
  0
LINE
  8
2
  6
CONTINUOUS
 10
55.131300
 20
19.650077
 11
54.883439
 21
19.617446
  0
LINE
  8
2
  6
CONTINUOUS
 10
55.131300
 20
19.650077
 11
54.883439
 21
19.682709
  0
LINE
  8
2
  6
CONTINUOUS
 10
52.511300
 20
19.650077
 11
52.759161
 21
19.682709
  0
LINE
  8
2
  6
CONTINUOUS
 10
52.511300
 20
19.650077
 11
52.759161
 21
19.617446
  0
LINE
  8
2
  6
CONTINUOUS
 10
55.131300
 20
18.046117
 11
55.131300
 21
18.046117
  0
LINE
  8
2
  6
CONTINUOUS
 10
52.511300
 20
18.046117
 11
52.511300
 21
18.046117
  0
CIRCLE
  8
2
  6
CONTINUOUS
 10
54.072415
 20
19.650077
 40
0.041625
  0
CIRCLE
  8
2
  6
CONTINUOUS
 10
54.072415
 20
19.650077
 40
0.020750
  0
LINE
  8
6
  6
CONTINUOUS
 10
54.192415
 20
16.726249
 11
54.072415
 21
16.726249
  0
LINE
  8
6
  6
CONTINUOUS
 10
54.072415
 20
16.726249
 11
54.072415
 21
20.686249
  0
LINE
  8
6
  6
CONTINUOUS
 10
54.072415
 20
20.686249
 11
54.192415
 21
20.686249
  0
LINE
  8
2
  6
CONTINUOUS
 10
47.311300
 20
19.578527
 11
44.691300
 21
19.578527
  0
LINE
  8
2
  6
CONTINUOUS
 10
47.311300
 20
19.578527
 11
47.063439
 21
19.545895
  0
LINE
  8
2
  6
CONTINUOUS
 10
47.311300
 20
19.578527
 11
47.063439
 21
19.611158
  0
LINE
  8
2
  6
CONTINUOUS
 10
44.691300
 20
19.578527
 11
44.939161
 21
19.611158
  0
LINE
  8
2
  6
CONTINUOUS
 10
44.691300
 20
19.578527
 11
44.939161
 21
19.545895
  0
LINE
  8
2
  6
CONTINUOUS
 10
47.311300
 20
18.046117
 11
47.311300
 21
18.046117
  0
LINE
  8
2
  6
CONTINUOUS
 10
44.691300
 20
18.046117
 11
44.691300
 21
18.046117
  0
CIRCLE
  8
2
  6
CONTINUOUS
 10
46.275637
 20
19.578527
 40
0.041625
  0
CIRCLE
  8
2
  6
CONTINUOUS
 10
46.275637
 20
19.578527
 40
0.020750
  0
LINE
  8
6
  6
CONTINUOUS
 10
46.395637
 20
16.726249
 11
46.275637
 21
16.726249
  0
LINE
  8
6
  6
CONTINUOUS
 10
46.275637
 20
16.726249
 11
46.275637
 21
20.686249
  0
LINE
  8
6
  6
CONTINUOUS
 10
46.275637
 20
20.686249
 11
46.395637
 21
20.686249
  0
LINE
  8
2
  6
CONTINUOUS
 10
61.111392
 20
20.665607
 11
65.711300
 21
20.665607
  0
LINE
  8
2
  6
CONTINUOUS
 10
61.111392
 20
20.665607
 11
61.359253
 21
20.698238
  0
LINE
  8
2
  6
CONTINUOUS
 10
61.111392
 20
20.665607
 11
61.359253
 21
20.632975
  0
LINE
  8
2
  6
CONTINUOUS
 10
65.711300
 20
20.665607
 11
65.463439
 21
20.632975
  0
LINE
  8
2
  6
CONTINUOUS
 10
65.711300
 20
20.665607
 11
65.463439
 21
20.698238
  0
LINE
  8
2
  6
CONTINUOUS
 10
61.111392
 20
20.683221
 11
61.111392
 21
20.683221
  0
LINE
  8
2
  6
CONTINUOUS
 10
65.711300
 20
20.683221
 11
65.711300
 21
20.683221
  0
CIRCLE
  8
2
  6
CONTINUOUS
 10
63.395346
 20
20.665607
 40
0.041625
  0
CIRCLE
  8
2
  6
CONTINUOUS
 10
63.395346
 20
20.665607
 40
0.020750
  0
LINE
  8
6
  6
CONTINUOUS
 10
63.535346
 20
19.336689
 11
63.395346
 21
19.336689
  0
LINE
  8
6
  6
CONTINUOUS
 10
63.395346
 20
19.336689
 11
63.395346
 21
23.376689
  0
LINE
  8
6
  6
CONTINUOUS
 10
63.395346
 20
23.376689
 11
63.515346
 21
23.376689
  0
LINE
  8
2
  6
CONTINUOUS
 10
75.557408
 20
11.924198
 11
76.611300
 21
11.924198
  0
LINE
  8
2
  6
CONTINUOUS
 10
75.557408
 20
11.924198
 11
75.805270
 21
11.956830
  0
LINE
  8
2
  6
CONTINUOUS
 10
75.557408
 20
11.924198
 11
75.805270
 21
11.891567
  0
LINE
  8
2
  6
CONTINUOUS
 10
76.611300
 20
11.924198
 11
76.363439
 21
11.891567
  0
LINE
  8
2
  6
CONTINUOUS
 10
76.611300
 20
11.924198
 11
76.363439
 21
11.956830
  0
LINE
  8
2
  6
CONTINUOUS
 10
75.557408
 20
11.979979
 11
75.557408
 21
11.979979
  0
LINE
  8
2
  6
CONTINUOUS
 10
76.611300
 20
11.979979
 11
76.611300
 21
11.979979
  0
CIRCLE
  8
2
  6
CONTINUOUS
 10
75.976618
 20
11.924198
 40
0.041625
  0
CIRCLE
  8
2
  6
CONTINUOUS
 10
75.976618
 20
11.924198
 40
0.020750
  0
LINE
  8
6
  6
CONTINUOUS
 10
76.656618
 20
11.300047
 11
75.976618
 21
11.300047
  0
LINE
  8
6
  6
CONTINUOUS
 10
75.976618
 20
11.300047
 11
75.976618
 21
13.340047
  0
LINE
  8
6
  6
CONTINUOUS
 10
75.976618
 20
13.340047
 11
76.056618
 21
13.340047
  0
LINE
  8
2
  6
CONTINUOUS
 10
71.511300
 20
19.760526
 11
76.905912
 21
19.760526
  0
LINE
  8
2
  6
CONTINUOUS
 10
71.511300
 20
19.760526
 11
71.759161
 21
19.793157
  0
LINE
  8
2
  6
CONTINUOUS
 10
71.511300
 20
19.760526
 11
71.759161
 21
19.727894
  0
LINE
  8
2
  6
CONTINUOUS
 10
76.905912
 20
19.760526
 11
76.658051
 21
19.727894
  0
LINE
  8
2
  6
CONTINUOUS
 10
76.905912
 20
19.760526
 11
76.658051
 21
19.793157
  0
LINE
  8
2
  6
CONTINUOUS
 10
71.511300
 20
18.160013
 11
71.511300
 21
18.160013
  0
LINE
  8
2
  6
CONTINUOUS
 10
76.905912
 20
18.160013
 11
76.905912
 21
18.160013
  0
CIRCLE
  8
2
  6
CONTINUOUS
 10
73.970656
 20
19.760526
 40
0.041625
  0
CIRCLE
  8
2
  6
CONTINUOUS
 10
73.970656
 20
19.760526
 40
0.020750
  0
LINE
  8
6
  6
CONTINUOUS
 10
74.050656
 20
16.880141
 11
73.970656
 21
16.880141
  0
LINE
  8
6
  6
CONTINUOUS
 10
73.970656
 20
16.880141
 11
73.970656
 21
20.720141
  0
LINE
  8
6
  6
CONTINUOUS
 10
73.970656
 20
20.720141
 11
74.050656
 21
20.720141
  0
LINE
  8
2
  6
CONTINUOUS
 10
79.123495
 20
19.808958
 11
80.731300
 21
19.808958
  0
LINE
  8
2
  6
CONTINUOUS
 10
79.123495
 20
19.808958
 11
79.371356
 21
19.841590
  0
LINE
  8
2
  6
CONTINUOUS
 10
79.123495
 20
19.808958
 11
79.371356
 21
19.776327
  0
LINE
  8
2
  6
CONTINUOUS
 10
80.731300
 20
19.808958
 11
80.483439
 21
19.776327
  0
LINE
  8
2
  6
CONTINUOUS
 10
80.731300
 20
19.808958
 11
80.483439
 21
19.841590
  0
LINE
  8
2
  6
CONTINUOUS
 10
79.123495
 20
19.633308
 11
79.123495
 21
19.633308
  0
LINE
  8
2
  6
CONTINUOUS
 10
80.731300
 20
19.633308
 11
80.731300
 21
19.633308
  0
CIRCLE
  8
2
  6
CONTINUOUS
 10
79.870778
 20
19.808958
 40
0.041625
  0
CIRCLE
  8
2
  6
CONTINUOUS
 10
79.870778
 20
19.808958
 40
0.020750
  0
LINE
  8
6
  6
CONTINUOUS
 10
80.570778
 20
18.900048
 11
79.870778
 21
18.900048
  0
LINE
  8
6
  6
CONTINUOUS
 10
79.870778
 20
18.900048
 11
79.870778
 21
21.100048
  0
LINE
  8
6
  6
CONTINUOUS
 10
79.870778
 20
21.100048
 11
79.970778
 21
21.100048
  0
LINE
  8
2
  6
CONTINUOUS
 10
52.511300
 20
21.625559
 11
47.311300
 21
21.625559
  0
LINE
  8
2
  6
CONTINUOUS
 10
52.511300
 20
21.625559
 11
52.263439
 21
21.592928
  0
LINE
  8
2
  6
CONTINUOUS
 10
52.511300
 20
21.625559
 11
52.263439
 21
21.658191
  0
LINE
  8
2
  6
CONTINUOUS
 10
47.311300
 20
21.625559
 11
47.559161
 21
21.658191
  0
LINE
  8
2
  6
CONTINUOUS
 10
47.311300
 20
21.625559
 11
47.559161
 21
21.592928
  0
LINE
  8
2
  6
CONTINUOUS
 10
52.511300
 20
21.944428
 11
52.511300
 21
21.944428
  0
LINE
  8
2
  6
CONTINUOUS
 10
47.311300
 20
21.944428
 11
47.311300
 21
21.944428
  0
CIRCLE
  8
2
  6
CONTINUOUS
 10
49.009001
 20
21.625559
 40
0.041625
  0
CIRCLE
  8
2
  6
CONTINUOUS
 10
49.009001
 20
21.625559
 40
0.020750
  0
LINE
  8
6
  6
CONTINUOUS
 10
49.129001
 20
21.424480
 11
49.009001
 21
21.424480
  0
LINE
  8
6
  6
CONTINUOUS
 10
49.009001
 20
21.424480
 11
49.009001
 21
22.984480
  0
LINE
  8
6
  6
CONTINUOUS
 10
49.009001
 20
22.984480
 11
49.129001
 21
22.984480
  0
LINE
  8
2
  6
CONTINUOUS
 10
58.661300
 20
28.038425
 11
55.511300
 21
28.038425
  0
LINE
  8
2
  6
CONTINUOUS
 10
58.661300
 20
28.038425
 11
58.413439
 21
28.005793
  0
LINE
  8
2
  6
CONTINUOUS
 10
58.661300
 20
28.038425
 11
58.413439
 21
28.071056
  0
LINE
  8
2
  6
CONTINUOUS
 10
55.511300
 20
28.038425
 11
55.759161
 21
28.071056
  0
LINE
  8
2
  6
CONTINUOUS
 10
55.511300
 20
28.038425
 11
55.759161
 21
28.005793
  0
LINE
  8
2
  6
CONTINUOUS
 10
58.661300
 20
25.775978
 11
58.661300
 21
25.775978
  0
LINE
  8
2
  6
CONTINUOUS
 10
55.511300
 20
25.775978
 11
55.511300
 21
25.775978
  0
CIRCLE
  8
2
  6
CONTINUOUS
 10
57.073099
 20
28.038425
 40
0.041625
  0
CIRCLE
  8
2
  6
CONTINUOUS
 10
57.073099
 20
28.038425
 40
0.020750
  0
LINE
  8
6
  6
CONTINUOUS
 10
57.193099
 20
24.242798
 11
57.073099
 21
24.242798
  0
LINE
  8
6
  6
CONTINUOUS
 10
57.073099
 20
24.242798
 11
57.073099
 21
28.842798
  0
LINE
  8
6
  6
CONTINUOUS
 10
57.073099
 20
28.842798
 11
57.153099
 21
28.842798
  0
LINE
  8
2
  6
CONTINUOUS
 10
52.451300
 20
32.666542
 11
50.091300
 21
32.666542
  0
LINE
  8
2
  6
CONTINUOUS
 10
52.451300
 20
32.666542
 11
52.203439
 21
32.633910
  0
LINE
  8
2
  6
CONTINUOUS
 10
52.451300
 20
32.666542
 11
52.203439
 21
32.699174
  0
LINE
  8
2
  6
CONTINUOUS
 10
50.091300
 20
32.666542
 11
50.339161
 21
32.699174
  0
LINE
  8
2
  6
CONTINUOUS
 10
50.091300
 20
32.666542
 11
50.339161
 21
32.633910
  0
LINE
  8
2
  6
CONTINUOUS
 10
52.451300
 20
32.097751
 11
52.451300
 21
32.097751
  0
LINE
  8
2
  6
CONTINUOUS
 10
50.091300
 20
32.097751
 11
50.091300
 21
32.097751
  0
CIRCLE
  8
2
  6
CONTINUOUS
 10
51.171525
 20
32.666542
 40
0.041625
  0
CIRCLE
  8
2
  6
CONTINUOUS
 10
51.171525
 20
32.666542
 40
0.020750
  0
LINE
  8
6
  6
CONTINUOUS
 10
51.251525
 20
31.484480
 11
51.171525
 21
31.484480
  0
LINE
  8
6
  6
CONTINUOUS
 10
51.171525
 20
31.484480
 11
51.171525
 21
33.324480
  0
LINE
  8
6
  6
CONTINUOUS
 10
51.171525
 20
33.324480
 11
51.851525
 21
33.324480
  0
LINE
  8
2
  6
CONTINUOUS
 10
36.711300
 20
26.700360
 11
41.161300
 21
26.700360
  0
LINE
  8
2
  6
CONTINUOUS
 10
36.711300
 20
26.700360
 11
36.959161
 21
26.732991
  0
LINE
  8
2
  6
CONTINUOUS
 10
36.711300
 20
26.700360
 11
36.959161
 21
26.667728
  0
LINE
  8
2
  6
CONTINUOUS
 10
41.161300
 20
26.700360
 11
40.913439
 21
26.667728
  0
LINE
  8
2
  6
CONTINUOUS
 10
41.161300
 20
26.700360
 11
40.913439
 21
26.732991
  0
LINE
  8
2
  6
CONTINUOUS
 10
36.711300
 20
26.151086
 11
36.711300
 21
26.151086
  0
LINE
  8
2
  6
CONTINUOUS
 10
41.161300
 20
26.151086
 11
41.161300
 21
26.151086
  0
CIRCLE
  8
2
  6
CONTINUOUS
 10
39.059777
 20
26.700360
 40
0.041625
  0
CIRCLE
  8
2
  6
CONTINUOUS
 10
39.059777
 20
26.700360
 40
0.020750
  0
LINE
  8
6
  6
CONTINUOUS
 10
39.199777
 20
25.544480
 11
39.059777
 21
25.544480
  0
LINE
  8
6
  6
CONTINUOUS
 10
39.059777
 20
25.544480
 11
39.059777
 21
27.364480
  0
LINE
  8
6
  6
CONTINUOUS
 10
39.059777
 20
27.364480
 11
39.799777
 21
27.364480
  0
LINE
  8
2
  6
CONTINUOUS
 10
77.537052
 20
35.292812
 11
80.980834
 21
35.292812
  0
LINE
  8
2
  6
CONTINUOUS
 10
77.537052
 20
35.292812
 11
77.784913
 21
35.325443
  0
LINE
  8
2
  6
CONTINUOUS
 10
77.537052
 20
35.292812
 11
77.784913
 21
35.260180
  0
LINE
  8
2
  6
CONTINUOUS
 10
80.980834
 20
35.292812
 11
80.732972
 21
35.260180
  0
LINE
  8
2
  6
CONTINUOUS
 10
80.980834
 20
35.292812
 11
80.732972
 21
35.325443
  0
LINE
  8
2
  6
CONTINUOUS
 10
77.537052
 20
33.349907
 11
77.537052
 21
33.349907
  0
LINE
  8
2
  6
CONTINUOUS
 10
80.980834
 20
33.349907
 11
80.980834
 21
33.349907
  0
CIRCLE
  8
2
  6
CONTINUOUS
 10
79.031244
 20
35.292812
 40
0.041625
  0
CIRCLE
  8
2
  6
CONTINUOUS
 10
79.031244
 20
35.292812
 40
0.020750
  0
LINE
  8
6
  6
CONTINUOUS
 10
79.191244
 20
31.970046
 11
79.031244
 21
31.970046
  0
LINE
  8
6
  6
CONTINUOUS
 10
79.031244
 20
31.970046
 11
79.031244
 21
36.110046
  0
LINE
  8
6
  6
CONTINUOUS
 10
79.031244
 20
36.110046
 11
79.131244
 21
36.110046
  0
LINE
  8
2
  6
CONTINUOUS
 10
70.311300
 20
35.217431
 11
77.157052
 21
35.217431
  0
LINE
  8
2
  6
CONTINUOUS
 10
70.311300
 20
35.217431
 11
70.559161
 21
35.250063
  0
LINE
  8
2
  6
CONTINUOUS
 10
70.311300
 20
35.217431
 11
70.559161
 21
35.184800
  0
LINE
  8
2
  6
CONTINUOUS
 10
77.157052
 20
35.217431
 11
76.909191
 21
35.184800
  0
LINE
  8
2
  6
CONTINUOUS
 10
77.157052
 20
35.217431
 11
76.909191
 21
35.250063
  0
LINE
  8
2
  6
CONTINUOUS
 10
70.311300
 20
33.226550
 11
70.311300
 21
33.226550
  0
LINE
  8
2
  6
CONTINUOUS
 10
77.157052
 20
33.226550
 11
77.157052
 21
33.226550
  0
CIRCLE
  8
2
  6
CONTINUOUS
 10
74.240892
 20
35.217431
 40
0.041625
  0
CIRCLE
  8
2
  6
CONTINUOUS
 10
74.240892
 20
35.217431
 40
0.020750
  0
LINE
  8
6
  6
CONTINUOUS
 10
74.380892
 20
31.600046
 11
74.240892
 21
31.600046
  0
LINE
  8
6
  6
CONTINUOUS
 10
74.240892
 20
31.600046
 11
74.240892
 21
36.480046
  0
LINE
  8
6
  6
CONTINUOUS
 10
74.240892
 20
36.480046
 11
74.320892
 21
36.480046
  0
LINE
  8
2
  6
CONTINUOUS
 10
63.111300
 20
34.675592
 11
65.711300
 21
34.675592
  0
LINE
  8
2
  6
CONTINUOUS
 10
63.111300
 20
34.675592
 11
63.359161
 21
34.708224
  0
LINE
  8
2
  6
CONTINUOUS
 10
63.111300
 20
34.675592
 11
63.359161
 21
34.642960
  0
LINE
  8
2
  6
CONTINUOUS
 10
65.711300
 20
34.675592
 11
65.463439
 21
34.642960
  0
LINE
  8
2
  6
CONTINUOUS
 10
65.711300
 20
34.675592
 11
65.463439
 21
34.708224
  0
LINE
  8
2
  6
CONTINUOUS
 10
63.111300
 20
33.506606
 11
63.111300
 21
33.506606
  0
LINE
  8
2
  6
CONTINUOUS
 10
65.711300
 20
33.506606
 11
65.711300
 21
33.506606
  0
CIRCLE
  8
2
  6
CONTINUOUS
 10
64.435300
 20
34.675592
 40
0.041625
  0
CIRCLE
  8
2
  6
CONTINUOUS
 10
64.435300
 20
34.675592
 40
0.020750
  0
LINE
  8
6
  6
CONTINUOUS
 10
64.555300
 20
32.440046
 11
64.435300
 21
32.440046
  0
LINE
  8
6
  6
CONTINUOUS
 10
64.435300
 20
32.440046
 11
64.435300
 21
35.640046
  0
LINE
  8
6
  6
CONTINUOUS
 10
64.435300
 20
35.640046
 11
64.515300
 21
35.640046
  0
LINE
  8
2
  6
CONTINUOUS
 10
65.711300
 20
34.937601
 11
70.311300
 21
34.937601
  0
LINE
  8
2
  6
CONTINUOUS
 10
65.711300
 20
34.937601
 11
65.959161
 21
34.970232
  0
LINE
  8
2
  6
CONTINUOUS
 10
65.711300
 20
34.937601
 11
65.959161
 21
34.904969
  0
LINE
  8
2
  6
CONTINUOUS
 10
70.311300
 20
34.937601
 11
70.063439
 21
34.904969
  0
LINE
  8
2
  6
CONTINUOUS
 10
70.311300
 20
34.937601
 11
70.063439
 21
34.970232
  0
LINE
  8
2
  6
CONTINUOUS
 10
65.711300
 20
33.209880
 11
65.711300
 21
33.209880
  0
LINE
  8
2
  6
CONTINUOUS
 10
70.311300
 20
33.209880
 11
70.311300
 21
33.209880
  0
CIRCLE
  8
2
  6
CONTINUOUS
 10
67.835634
 20
34.937601
 40
0.041625
  0
CIRCLE
  8
2
  6
CONTINUOUS
 10
67.835634
 20
34.937601
 40
0.020750
  0
LINE
  8
6
  6
CONTINUOUS
 10
67.975634
 20
31.550046
 11
67.835634
 21
31.550046
  0
LINE
  8
6
  6
CONTINUOUS
 10
67.835634
 20
31.550046
 11
67.835634
 21
36.530046
  0
LINE
  8
6
  6
CONTINUOUS
 10
67.835634
 20
36.530046
 11
68.515634
 21
36.530046
  0
LINE
  8
2
  6
CONTINUOUS
 10
77.657052
 20
40.618106
 11
84.977052
 21
40.618106
  0
LINE
  8
2
  6
CONTINUOUS
 10
77.657052
 20
40.618106
 11
77.904913
 21
40.650737
  0
LINE
  8
2
  6
CONTINUOUS
 10
77.657052
 20
40.618106
 11
77.904913
 21
40.585474
  0
LINE
  8
2
  6
CONTINUOUS
 10
84.977052
 20
40.618106
 11
84.729191
 21
40.585474
  0
LINE
  8
2
  6
CONTINUOUS
 10
84.977052
 20
40.618106
 11
84.729191
 21
40.650737
  0
LINE
  8
2
  6
CONTINUOUS
 10
77.657052
 20
38.861870
 11
77.657052
 21
38.861870
  0
LINE
  8
2
  6
CONTINUOUS
 10
84.977052
 20
38.861870
 11
84.977052
 21
38.861870
  0
CIRCLE
  8
2
  6
CONTINUOUS
 10
80.720207
 20
40.618106
 40
0.041625
  0
CIRCLE
  8
2
  6
CONTINUOUS
 10
80.720207
 20
40.618106
 40
0.020750
  0
LINE
  8
6
  6
CONTINUOUS
 10
80.800207
 20
37.548667
 11
80.720207
 21
37.548667
  0
LINE
  8
6
  6
CONTINUOUS
 10
80.720207
 20
37.548667
 11
80.720207
 21
41.488667
  0
LINE
  8
6
  6
CONTINUOUS
 10
80.720207
 20
41.488667
 11
80.800207
 21
41.488667
  0
LINE
  8
2
  6
CONTINUOUS
 10
84.977052
 20
40.296653
 11
89.012875
 21
40.296653
  0
LINE
  8
2
  6
CONTINUOUS
 10
84.977052
 20
40.296653
 11
85.224913
 21
40.329284
  0
LINE
  8
2
  6
CONTINUOUS
 10
84.977052
 20
40.296653
 11
85.224913
 21
40.264021
  0
LINE
  8
2
  6
CONTINUOUS
 10
89.012875
 20
40.296653
 11
88.765013
 21
40.264021
  0
LINE
  8
2
  6
CONTINUOUS
 10
89.012875
 20
40.296653
 11
88.765013
 21
40.329284
  0
LINE
  8
2
  6
CONTINUOUS
 10
84.977052
 20
40.296653
 11
84.977052
 21
40.296653
  0
LINE
  8
2
  6
CONTINUOUS
 10
89.012875
 20
40.296653
 11
89.012875
 21
40.296653
  0
CIRCLE
  8
2
  6
CONTINUOUS
 10
86.661327
 20
40.296653
 40
0.041625
  0
CIRCLE
  8
2
  6
CONTINUOUS
 10
86.661327
 20
40.296653
 40
0.020750
  0
LINE
  8
6
  6
CONTINUOUS
 10
87.381327
 20
39.700046
 11
86.661327
 21
39.700046
  0
LINE
  8
6
  6
CONTINUOUS
 10
86.661327
 20
39.700046
 11
86.661327
 21
41.490046
  0
LINE
  8
6
  6
CONTINUOUS
 10
86.661327
 20
41.490046
 11
86.741327
 21
41.490046
  0
LINE
  8
2
  6
CONTINUOUS
 10
73.677303
 20
26.629848
 11
80.731300
 21
26.629848
  0
LINE
  8
2
  6
CONTINUOUS
 10
73.677303
 20
26.629848
 11
73.925165
 21
26.662480
  0
LINE
  8
2
  6
CONTINUOUS
 10
73.677303
 20
26.629848
 11
73.925165
 21
26.597217
  0
LINE
  8
2
  6
CONTINUOUS
 10
80.731300
 20
26.629848
 11
80.483439
 21
26.597217
  0
LINE
  8
2
  6
CONTINUOUS
 10
80.731300
 20
26.629848
 11
80.483439
 21
26.662480
  0
LINE
  8
2
  6
CONTINUOUS
 10
73.677303
 20
24.929941
 11
73.677303
 21
24.929941
  0
LINE
  8
2
  6
CONTINUOUS
 10
80.731300
 20
24.929941
 11
80.731300
 21
24.929941
  0
CIRCLE
  8
2
  6
CONTINUOUS
 10
77.236300
 20
26.629848
 40
0.041625
  0
CIRCLE
  8
2
  6
CONTINUOUS
 10
77.236300
 20
26.629848
 40
0.020750
  0
LINE
  8
6
  6
CONTINUOUS
 10
77.316300
 20
23.870048
 11
77.236300
 21
23.870048
  0
LINE
  8
6
  6
CONTINUOUS
 10
77.236300
 20
23.870048
 11
77.236300
 21
27.050048
  0
LINE
  8
6
  6
CONTINUOUS
 10
77.236300
 20
27.050048
 11
77.376300
 21
27.050048
  0
LINE
  8
2
  6
CONTINUOUS
 10
41.161300
 20
26.602523
 11
44.311300
 21
26.602523
  0
LINE
  8
2
  6
CONTINUOUS
 10
41.161300
 20
26.602523
 11
41.409161
 21
26.635155
  0
LINE
  8
2
  6
CONTINUOUS
 10
41.161300
 20
26.602523
 11
41.409161
 21
26.569892
  0
LINE
  8
2
  6
CONTINUOUS
 10
44.311300
 20
26.602523
 11
44.063439
 21
26.569892
  0
LINE
  8
2
  6
CONTINUOUS
 10
44.311300
 20
26.602523
 11
44.063439
 21
26.635155
  0
LINE
  8
2
  6
CONTINUOUS
 10
41.161300
 20
25.775978
 11
41.161300
 21
25.775978
  0
LINE
  8
2
  6
CONTINUOUS
 10
44.311300
 20
25.775978
 11
44.311300
 21
25.775978
  0
CIRCLE
  8
2
  6
CONTINUOUS
 10
42.441477
 20
26.602523
 40
0.041625
  0
CIRCLE
  8
2
  6
CONTINUOUS
 10
42.441477
 20
26.602523
 40
0.020750
  0
LINE
  8
6
  6
CONTINUOUS
 10
42.561477
 20
24.242798
 11
42.441477
 21
24.242798
  0
LINE
  8
6
  6
CONTINUOUS
 10
42.441477
 20
24.242798
 11
42.441477
 21
27.404478
  0
LINE
  8
6
  6
CONTINUOUS
 10
42.441477
 20
27.404478
 11
43.161477
 21
27.404478
  0
LINE
  8
2
  6
CONTINUOUS
 10
55.511300
 20
27.884259
 11
46.911300
 21
27.884259
  0
LINE
  8
2
  6
CONTINUOUS
 10
55.511300
 20
27.884259
 11
55.263439
 21
27.851627
  0
LINE
  8
2
  6
CONTINUOUS
 10
55.511300
 20
27.884259
 11
55.263439
 21
27.916890
  0
LINE
  8
2
  6
CONTINUOUS
 10
46.911300
 20
27.884259
 11
47.159161
 21
27.916890
  0
LINE
  8
2
  6
CONTINUOUS
 10
46.911300
 20
27.884259
 11
47.159161
 21
27.851627
  0
LINE
  8
2
  6
CONTINUOUS
 10
55.511300
 20
26.306880
 11
55.511300
 21
26.306880
  0
LINE
  8
2
  6
CONTINUOUS
 10
46.911300
 20
26.306880
 11
46.911300
 21
26.306880
  0
CIRCLE
  8
2
  6
CONTINUOUS
 10
51.118192
 20
27.884259
 40
0.041625
  0
CIRCLE
  8
2
  6
CONTINUOUS
 10
51.118192
 20
27.884259
 40
0.020750
  0
LINE
  8
6
  6
CONTINUOUS
 10
51.238192
 20
25.306980
 11
51.118192
 21
25.306980
  0
LINE
  8
6
  6
CONTINUOUS
 10
51.118192
 20
25.306980
 11
51.118192
 21
28.306980
  0
LINE
  8
6
  6
CONTINUOUS
 10
51.118192
 20
28.306980
 11
51.198192
 21
28.306980
  0
LINE
  8
2
  6
CONTINUOUS
 10
63.111300
 20
26.759599
 11
58.661300
 21
26.759599
  0
LINE
  8
2
  6
CONTINUOUS
 10
63.111300
 20
26.759599
 11
62.863439
 21
26.726968
  0
LINE
  8
2
  6
CONTINUOUS
 10
63.111300
 20
26.759599
 11
62.863439
 21
26.792231
  0
LINE
  8
2
  6
CONTINUOUS
 10
58.661300
 20
26.759599
 11
58.909161
 21
26.792231
  0
LINE
  8
2
  6
CONTINUOUS
 10
58.661300
 20
26.759599
 11
58.909161
 21
26.726968
  0
LINE
  8
2
  6
CONTINUOUS
 10
63.111300
 20
26.151086
 11
63.111300
 21
26.151086
  0
LINE
  8
2
  6
CONTINUOUS
 10
58.661300
 20
26.151086
 11
58.661300
 21
26.151086
  0
CIRCLE
  8
2
  6
CONTINUOUS
 10
61.341531
 20
26.759599
 40
0.041625
  0
CIRCLE
  8
2
  6
CONTINUOUS
 10
61.341531
 20
26.759599
 40
0.020750
  0
LINE
  8
6
  6
CONTINUOUS
 10
61.481531
 20
25.544480
 11
61.341531
 21
25.544480
  0
LINE
  8
6
  6
CONTINUOUS
 10
61.341531
 20
25.544480
 11
61.341531
 21
27.364480
  0
LINE
  8
6
  6
CONTINUOUS
 10
61.341531
 20
27.364480
 11
62.081531
 21
27.364480
  0
LINE
  8
2
  6
CONTINUOUS
 10
44.311300
 20
20.640298
 11
41.525353
 21
20.640298
  0
LINE
  8
2
  6
CONTINUOUS
 10
44.311300
 20
20.640298
 11
44.063439
 21
20.607667
  0
LINE
  8
2
  6
CONTINUOUS
 10
44.311300
 20
20.640298
 11
44.063439
 21
20.672930
  0
LINE
  8
2
  6
CONTINUOUS
 10
41.525353
 20
20.640298
 11
41.773214
 21
20.672930
  0
LINE
  8
2
  6
CONTINUOUS
 10
41.525353
 20
20.640298
 11
41.773214
 21
20.607667
  0
LINE
  8
2
  6
CONTINUOUS
 10
44.311300
 20
19.077692
 11
44.311300
 21
19.077692
  0
LINE
  8
2
  6
CONTINUOUS
 10
41.525353
 20
19.077692
 11
41.525353
 21
19.077692
  0
CIRCLE
  8
2
  6
CONTINUOUS
 10
42.242483
 20
20.640298
 40
0.041625
  0
CIRCLE
  8
2
  6
CONTINUOUS
 10
42.242483
 20
20.640298
 40
0.020750
  0
LINE
  8
6
  6
CONTINUOUS
 10
42.382483
 20
17.864480
 11
42.242483
 21
17.864480
  0
LINE
  8
6
  6
CONTINUOUS
 10
42.242483
 20
17.864480
 11
42.242483
 21
21.504480
  0
LINE
  8
6
  6
CONTINUOUS
 10
42.242483
 20
21.504480
 11
42.962483
 21
21.504480
  0
LINE
  8
2
  6
CONTINUOUS
 10
55.511300
 20
20.549721
 11
58.297247
 21
20.549721
  0
LINE
  8
2
  6
CONTINUOUS
 10
55.511300
 20
20.549721
 11
55.759161
 21
20.582353
  0
LINE
  8
2
  6
CONTINUOUS
 10
55.511300
 20
20.549721
 11
55.759161
 21
20.517090
  0
LINE
  8
2
  6
CONTINUOUS
 10
58.297247
 20
20.549721
 11
58.049386
 21
20.517090
  0
LINE
  8
2
  6
CONTINUOUS
 10
58.297247
 20
20.549721
 11
58.049386
 21
20.582353
  0
LINE
  8
2
  6
CONTINUOUS
 10
55.511300
 20
19.077692
 11
55.511300
 21
19.077692
  0
LINE
  8
2
  6
CONTINUOUS
 10
58.297247
 20
19.077692
 11
58.297247
 21
19.077692
  0
CIRCLE
  8
2
  6
CONTINUOUS
 10
57.322194
 20
20.549721
 40
0.041625
  0
CIRCLE
  8
2
  6
CONTINUOUS
 10
57.322194
 20
20.549721
 40
0.020750
  0
LINE
  8
6
  6
CONTINUOUS
 10
57.462194
 20
17.864480
 11
57.322194
 21
17.864480
  0
LINE
  8
6
  6
CONTINUOUS
 10
57.322194
 20
17.864480
 11
57.322194
 21
21.504480
  0
LINE
  8
6
  6
CONTINUOUS
 10
57.322194
 20
21.504480
 11
58.042194
 21
21.504480
  0
LINE
  8
2
  6
CONTINUOUS
 10
28.311300
 20
24.930625
 11
26.145297
 21
24.930625
  0
LINE
  8
2
  6
CONTINUOUS
 10
28.311300
 20
24.930625
 11
28.063439
 21
24.897993
  0
LINE
  8
2
  6
CONTINUOUS
 10
28.311300
 20
24.930625
 11
28.063439
 21
24.963256
  0
LINE
  8
2
  6
CONTINUOUS
 10
26.145297
 20
24.930625
 11
26.393158
 21
24.963256
  0
LINE
  8
2
  6
CONTINUOUS
 10
26.145297
 20
24.930625
 11
26.393158
 21
24.897993
  0
LINE
  8
2
  6
CONTINUOUS
 10
28.311300
 20
23.556003
 11
28.311300
 21
23.556003
  0
LINE
  8
2
  6
CONTINUOUS
 10
26.145297
 20
23.556003
 11
26.145297
 21
23.556003
  0
CIRCLE
  8
2
  6
CONTINUOUS
 10
27.313257
 20
24.930625
 40
0.041625
  0
CIRCLE
  8
2
  6
CONTINUOUS
 10
27.313257
 20
24.930625
 40
0.020750
  0
LINE
  8
6
  6
CONTINUOUS
 10
27.393257
 20
22.129480
 11
27.313257
 21
22.129480
  0
LINE
  8
6
  6
CONTINUOUS
 10
27.313257
 20
22.129480
 11
27.313257
 21
26.409480
  0
LINE
  8
6
  6
CONTINUOUS
 10
27.313257
 20
26.409480
 11
27.453257
 21
26.409480
  0
LINE
  8
2
  6
CONTINUOUS
 10
33.731300
 20
24.845896
 11
31.311300
 21
24.845896
  0
LINE
  8
2
  6
CONTINUOUS
 10
33.731300
 20
24.845896
 11
33.483439
 21
24.813265
  0
LINE
  8
2
  6
CONTINUOUS
 10
33.731300
 20
24.845896
 11
33.483439
 21
24.878528
  0
LINE
  8
2
  6
CONTINUOUS
 10
31.311300
 20
24.845896
 11
31.559161
 21
24.878528
  0
LINE
  8
2
  6
CONTINUOUS
 10
31.311300
 20
24.845896
 11
31.559161
 21
24.813265
  0
LINE
  8
2
  6
CONTINUOUS
 10
33.731300
 20
23.459478
 11
33.731300
 21
23.459478
  0
LINE
  8
2
  6
CONTINUOUS
 10
31.311300
 20
21.174480
 11
31.311300
 21
21.174480
  0
CIRCLE
  8
2
  6
CONTINUOUS
 10
32.362486
 20
24.845896
 40
0.041625
  0
CIRCLE
  8
2
  6
CONTINUOUS
 10
32.362486
 20
24.845896
 40
0.020750
  0
LINE
  8
6
  6
CONTINUOUS
 10
32.502486
 20
21.244480
 11
32.362486
 21
21.244480
  0
LINE
  8
6
  6
CONTINUOUS
 10
32.362486
 20
21.244480
 11
32.362486
 21
26.464480
  0
LINE
  8
6
  6
CONTINUOUS
 10
32.362486
 20
26.464480
 11
32.502486
 21
26.464480
  0
LINE
  8
2
  6
CONTINUOUS
 10
66.091300
 20
24.845896
 11
68.511300
 21
24.845896
  0
LINE
  8
2
  6
CONTINUOUS
 10
66.091300
 20
24.845896
 11
66.339161
 21
24.878528
  0
LINE
  8
2
  6
CONTINUOUS
 10
66.091300
 20
24.845896
 11
66.339161
 21
24.813265
  0
LINE
  8
2
  6
CONTINUOUS
 10
68.511300
 20
24.845896
 11
68.263439
 21
24.813265
  0
LINE
  8
2
  6
CONTINUOUS
 10
68.511300
 20
24.845896
 11
68.263439
 21
24.878528
  0
LINE
  8
2
  6
CONTINUOUS
 10
66.091300
 20
23.459478
 11
66.091300
 21
23.459478
  0
LINE
  8
2
  6
CONTINUOUS
 10
68.511300
 20
21.174480
 11
68.511300
 21
21.174480
  0
CIRCLE
  8
2
  6
CONTINUOUS
 10
67.460114
 20
24.845896
 40
0.041625
  0
CIRCLE
  8
2
  6
CONTINUOUS
 10
67.460114
 20
24.845896
 40
0.020750
  0
LINE
  8
6
  6
CONTINUOUS
 10
67.600114
 20
21.244480
 11
67.460114
 21
21.244480
  0
LINE
  8
6
  6
CONTINUOUS
 10
67.460114
 20
21.244480
 11
67.460114
 21
26.464480
  0
LINE
  8
6
  6
CONTINUOUS
 10
67.460114
 20
26.464480
 11
67.600114
 21
26.464480
  0
LINE
  8
2
  6
CONTINUOUS
 10
68.511300
 20
24.208469
 11
71.511300
 21
24.208469
  0
LINE
  8
2
  6
CONTINUOUS
 10
68.511300
 20
24.208469
 11
68.759161
 21
24.241101
  0
LINE
  8
2
  6
CONTINUOUS
 10
68.511300
 20
24.208469
 11
68.759161
 21
24.175838
  0
LINE
  8
2
  6
CONTINUOUS
 10
71.511300
 20
24.208469
 11
71.263439
 21
24.175838
  0
LINE
  8
2
  6
CONTINUOUS
 10
71.511300
 20
24.208469
 11
71.263439
 21
24.241101
  0
LINE
  8
2
  6
CONTINUOUS
 10
68.511300
 20
24.845896
 11
68.511300
 21
24.845896
  0
LINE
  8
2
  6
CONTINUOUS
 10
71.511300
 20
24.845896
 11
71.511300
 21
24.845896
  0
CIRCLE
  8
2
  6
CONTINUOUS
 10
70.019873
 20
24.208469
 40
0.041625
  0
CIRCLE
  8
2
  6
CONTINUOUS
 10
70.019873
 20
24.208469
 40
0.020750
  0
LINE
  8
6
  6
CONTINUOUS
 10
70.159873
 20
19.921234
 11
70.019873
 21
19.921234
  0
LINE
  8
6
  6
CONTINUOUS
 10
70.019873
 20
19.921234
 11
70.019873
 21
26.441234
  0
LINE
  8
6
  6
CONTINUOUS
 10
70.019873
 20
26.441234
 11
70.159873
 21
26.441234
  0
LINE
  8
2
  6
CONTINUOUS
 10
28.311300
 20
24.109484
 11
31.311300
 21
24.109484
  0
LINE
  8
2
  6
CONTINUOUS
 10
28.311300
 20
24.109484
 11
28.559161
 21
24.142115
  0
LINE
  8
2
  6
CONTINUOUS
 10
28.311300
 20
24.109484
 11
28.559161
 21
24.076852
  0
LINE
  8
2
  6
CONTINUOUS
 10
31.311300
 20
24.109484
 11
31.063439
 21
24.076852
  0
LINE
  8
2
  6
CONTINUOUS
 10
31.311300
 20
24.109484
 11
31.063439
 21
24.142115
  0
LINE
  8
2
  6
CONTINUOUS
 10
28.311300
 20
24.374480
 11
28.311300
 21
24.374480
  0
LINE
  8
2
  6
CONTINUOUS
 10
31.311300
 20
24.845896
 11
31.311300
 21
24.845896
  0
CIRCLE
  8
2
  6
CONTINUOUS
 10
30.308152
 20
24.109484
 40
0.041625
  0
CIRCLE
  8
2
  6
CONTINUOUS
 10
30.308152
 20
24.109484
 40
0.020750
  0
LINE
  8
6
  6
CONTINUOUS
 10
30.448152
 20
19.921234
 11
30.308152
 21
19.921234
  0
LINE
  8
6
  6
CONTINUOUS
 10
30.308152
 20
19.921234
 11
30.308152
 21
26.441234
  0
LINE
  8
6
  6
CONTINUOUS
 10
30.308152
 20
26.441234
 11
30.448152
 21
26.441234
  0
LINE
  8
2
  6
CONTINUOUS
 10
71.511300
 20
24.884477
 11
73.622164
 21
24.884477
  0
LINE
  8
2
  6
CONTINUOUS
 10
71.511300
 20
24.884477
 11
71.759161
 21
24.917109
  0
LINE
  8
2
  6
CONTINUOUS
 10
71.511300
 20
24.884477
 11
71.759161
 21
24.851846
  0
LINE
  8
2
  6
CONTINUOUS
 10
73.622164
 20
24.884477
 11
73.374303
 21
24.851846
  0
LINE
  8
2
  6
CONTINUOUS
 10
73.622164
 20
24.884477
 11
73.374303
 21
24.917109
  0
LINE
  8
2
  6
CONTINUOUS
 10
71.511300
 20
23.556003
 11
71.511300
 21
23.556003
  0
LINE
  8
2
  6
CONTINUOUS
 10
73.622164
 20
23.556003
 11
73.622164
 21
23.556003
  0
CIRCLE
  8
2
  6
CONTINUOUS
 10
72.719007
 20
24.884477
 40
0.041625
  0
CIRCLE
  8
2
  6
CONTINUOUS
 10
72.719007
 20
24.884477
 40
0.020750
  0
LINE
  8
6
  6
CONTINUOUS
 10
72.799007
 20
22.129480
 11
72.719007
 21
22.129480
  0
LINE
  8
6
  6
CONTINUOUS
 10
72.719007
 20
22.129480
 11
72.719007
 21
26.409480
  0
LINE
  8
6
  6
CONTINUOUS
 10
72.719007
 20
26.409480
 11
72.859007
 21
26.409480
  0
LINE
  8
2
  6
CONTINUOUS
 10
101.643790
 20
52.917301
 11
101.643790
 21
51.604801
  0
LINE
  8
2
  6
CONTINUOUS
 10
112.643790
 20
52.917301
 11
112.643790
 21
51.604801
  0
LINE
  8
2
  6
CONTINUOUS
 10
101.643790
 20
52.917301
 11
112.643790
 21
52.917301
  0
LINE
  8
2
  6
CONTINUOUS
 10
101.643790
 20
51.604801
 11
112.643790
 21
51.604801
  0
LINE
  8
2
  6
CONTINUOUS
 10
104.593790
 20
51.604801
 11
104.593790
 21
52.917301
  0
LINE
  8
2
  6
CONTINUOUS
 10
105.973790
 20
51.604801
 11
105.973790
 21
52.917301
  0
LINE
  8
2
  6
CONTINUOUS
 10
107.783790
 20
51.604801
 11
107.783790
 21
52.917301
  0
LINE
  8
2
  6
CONTINUOUS
 10
109.163790
 20
51.604801
 11
109.163790
 21
52.917301
  0
LINE
  8
2
  6
CONTINUOUS
 10
109.163790
 20
52.479801
 11
112.643790
 21
52.479801
  0
LINE
  8
2
  6
CONTINUOUS
 10
110.773790
 20
51.604801
 11
110.773790
 21
52.479801
  0
LINE
  8
2
  6
CONTINUOUS
 10
112.643790
 20
51.167301
 11
102.793790
 21
51.167301
  0
LINE
  8
2
  6
CONTINUOUS
 10
101.643790
 20
51.167301
 11
101.643790
 21
51.604801
  0
LINE
  8
2
  6
CONTINUOUS
 10
112.643790
 20
51.167301
 11
112.643790
 21
51.604801
  0
LINE
  8
2
  6
CONTINUOUS
 10
101.643790
 20
51.604801
 11
112.643790
 21
51.604801
  0
LINE
  8
2
  6
CONTINUOUS
 10
104.593790
 20
51.167301
 11
104.593790
 21
50.817301
  0
LINE
  8
2
  6
CONTINUOUS
 10
105.973790
 20
51.167301
 11
105.973790
 21
50.817301
  0
LINE
  8
2
  6
CONTINUOUS
 10
107.783790
 20
51.167301
 11
107.783790
 21
50.817301
  0
LINE
  8
2
  6
CONTINUOUS
 10
109.163790
 20
51.167301
 11
109.163790
 21
50.817301
  0
LINE
  8
2
  6
CONTINUOUS
 10
110.773790
 20
51.167301
 11
110.773790
 21
50.817301
  0
LINE
  8
2
  6
CONTINUOUS
 10
101.643790
 20
50.817301
 11
101.643790
 21
51.167301
  0
LINE
  8
2
  6
CONTINUOUS
 10
112.643790
 20
50.817301
 11
112.643790
 21
51.167301
  0
LINE
  8
2
  6
CONTINUOUS
 10
102.793790
 20
51.167301
 11
102.793790
 21
50.817301
  0
LINE
  8
2
  6
CONTINUOUS
 10
104.593790
 20
50.817301
 11
104.593790
 21
50.467301
  0
LINE
  8
2
  6
CONTINUOUS
 10
105.973790
 20
50.817301
 11
105.973790
 21
50.467301
  0
LINE
  8
2
  6
CONTINUOUS
 10
107.783790
 20
50.817301
 11
107.783790
 21
50.467301
  0
LINE
  8
2
  6
CONTINUOUS
 10
109.163790
 20
50.817301
 11
109.163790
 21
50.467301
  0
LINE
  8
2
  6
CONTINUOUS
 10
110.773790
 20
50.817301
 11
110.773790
 21
50.467301
  0
LINE
  8
2
  6
CONTINUOUS
 10
101.643790
 20
50.467301
 11
101.643790
 21
50.817301
  0
LINE
  8
2
  6
CONTINUOUS
 10
112.643790
 20
50.467301
 11
112.643790
 21
50.817301
  0
LINE
  8
2
  6
CONTINUOUS
 10
102.793790
 20
50.817301
 11
102.793790
 21
50.467301
  0
LINE
  8
2
  6
CONTINUOUS
 10
104.593790
 20
50.467301
 11
104.593790
 21
50.117301
  0
LINE
  8
2
  6
CONTINUOUS
 10
105.973790
 20
50.467301
 11
105.973790
 21
50.117301
  0
LINE
  8
2
  6
CONTINUOUS
 10
107.783790
 20
50.467301
 11
107.783790
 21
50.117301
  0
LINE
  8
2
  6
CONTINUOUS
 10
109.163790
 20
50.467301
 11
109.163790
 21
50.117301
  0
LINE
  8
2
  6
CONTINUOUS
 10
110.773790
 20
50.467301
 11
110.773790
 21
50.117301
  0
LINE
  8
2
  6
CONTINUOUS
 10
101.643790
 20
50.117301
 11
101.643790
 21
50.467301
  0
LINE
  8
2
  6
CONTINUOUS
 10
112.643790
 20
50.117301
 11
112.643790
 21
50.467301
  0
LINE
  8
2
  6
CONTINUOUS
 10
102.793790
 20
50.467301
 11
102.793790
 21
50.117301
  0
LINE
  8
2
  6
CONTINUOUS
 10
104.593790
 20
50.117301
 11
104.593790
 21
49.767301
  0
LINE
  8
2
  6
CONTINUOUS
 10
105.973790
 20
50.117301
 11
105.973790
 21
49.767301
  0
LINE
  8
2
  6
CONTINUOUS
 10
107.783790
 20
50.117301
 11
107.783790
 21
49.767301
  0
LINE
  8
2
  6
CONTINUOUS
 10
109.163790
 20
50.117301
 11
109.163790
 21
49.767301
  0
LINE
  8
2
  6
CONTINUOUS
 10
110.773790
 20
50.117301
 11
110.773790
 21
49.767301
  0
LINE
  8
2
  6
CONTINUOUS
 10
101.643790
 20
49.767301
 11
101.643790
 21
50.117301
  0
LINE
  8
2
  6
CONTINUOUS
 10
112.643790
 20
49.767301
 11
112.643790
 21
50.117301
  0
LINE
  8
2
  6
CONTINUOUS
 10
102.793790
 20
50.117301
 11
102.793790
 21
49.767301
  0
LINE
  8
2
  6
CONTINUOUS
 10
104.593790
 20
49.767301
 11
104.593790
 21
49.417301
  0
LINE
  8
2
  6
CONTINUOUS
 10
105.973790
 20
49.767301
 11
105.973790
 21
49.417301
  0
LINE
  8
2
  6
CONTINUOUS
 10
107.783790
 20
49.767301
 11
107.783790
 21
49.417301
  0
LINE
  8
2
  6
CONTINUOUS
 10
109.163790
 20
49.767301
 11
109.163790
 21
49.417301
  0
LINE
  8
2
  6
CONTINUOUS
 10
110.773790
 20
49.767301
 11
110.773790
 21
49.417301
  0
LINE
  8
2
  6
CONTINUOUS
 10
101.643790
 20
49.417301
 11
101.643790
 21
49.767301
  0
LINE
  8
2
  6
CONTINUOUS
 10
112.643790
 20
49.417301
 11
112.643790
 21
49.767301
  0
LINE
  8
2
  6
CONTINUOUS
 10
102.793790
 20
49.767301
 11
102.793790
 21
49.417301
  0
LINE
  8
2
  6
CONTINUOUS
 10
104.593790
 20
49.417301
 11
104.593790
 21
49.067301
  0
LINE
  8
2
  6
CONTINUOUS
 10
105.973790
 20
49.417301
 11
105.973790
 21
49.067301
  0
LINE
  8
2
  6
CONTINUOUS
 10
107.783790
 20
49.417301
 11
107.783790
 21
49.067301
  0
LINE
  8
2
  6
CONTINUOUS
 10
109.163790
 20
49.417301
 11
109.163790
 21
49.067301
  0
LINE
  8
2
  6
CONTINUOUS
 10
110.773790
 20
49.417301
 11
110.773790
 21
49.067301
  0
LINE
  8
2
  6
CONTINUOUS
 10
101.643790
 20
49.067301
 11
101.643790
 21
49.417301
  0
LINE
  8
2
  6
CONTINUOUS
 10
112.643790
 20
49.067301
 11
112.643790
 21
49.417301
  0
LINE
  8
2
  6
CONTINUOUS
 10
102.793790
 20
49.417301
 11
102.793790
 21
49.067301
  0
LINE
  8
2
  6
CONTINUOUS
 10
104.593790
 20
49.067301
 11
104.593790
 21
48.717301
  0
LINE
  8
2
  6
CONTINUOUS
 10
105.973790
 20
49.067301
 11
105.973790
 21
48.717301
  0
LINE
  8
2
  6
CONTINUOUS
 10
107.783790
 20
49.067301
 11
107.783790
 21
48.717301
  0
LINE
  8
2
  6
CONTINUOUS
 10
109.163790
 20
49.067301
 11
109.163790
 21
48.717301
  0
LINE
  8
2
  6
CONTINUOUS
 10
110.773790
 20
49.067301
 11
110.773790
 21
48.717301
  0
LINE
  8
2
  6
CONTINUOUS
 10
101.643790
 20
48.717301
 11
101.643790
 21
49.067301
  0
LINE
  8
2
  6
CONTINUOUS
 10
112.643790
 20
48.717301
 11
112.643790
 21
49.067301
  0
LINE
  8
2
  6
CONTINUOUS
 10
102.793790
 20
49.067301
 11
102.793790
 21
48.717301
  0
LINE
  8
2
  6
CONTINUOUS
 10
104.593790
 20
48.717301
 11
104.593790
 21
48.367302
  0
LINE
  8
2
  6
CONTINUOUS
 10
105.973790
 20
48.717301
 11
105.973790
 21
48.367302
  0
LINE
  8
2
  6
CONTINUOUS
 10
107.783790
 20
48.717301
 11
107.783790
 21
48.367302
  0
LINE
  8
2
  6
CONTINUOUS
 10
109.163790
 20
48.717301
 11
109.163790
 21
48.367302
  0
LINE
  8
2
  6
CONTINUOUS
 10
110.773790
 20
48.717301
 11
110.773790
 21
48.367302
  0
LINE
  8
2
  6
CONTINUOUS
 10
101.643790
 20
48.367302
 11
101.643790
 21
48.717301
  0
LINE
  8
2
  6
CONTINUOUS
 10
112.643790
 20
48.367302
 11
112.643790
 21
48.717301
  0
LINE
  8
2
  6
CONTINUOUS
 10
102.793790
 20
48.717301
 11
102.793790
 21
48.367302
  0
LINE
  8
2
  6
CONTINUOUS
 10
104.593790
 20
48.367302
 11
104.593790
 21
48.017302
  0
LINE
  8
2
  6
CONTINUOUS
 10
105.973790
 20
48.367302
 11
105.973790
 21
48.017302
  0
LINE
  8
2
  6
CONTINUOUS
 10
107.783790
 20
48.367302
 11
107.783790
 21
48.017302
  0
LINE
  8
2
  6
CONTINUOUS
 10
109.163790
 20
48.367302
 11
109.163790
 21
48.017302
  0
LINE
  8
2
  6
CONTINUOUS
 10
110.773790
 20
48.367302
 11
110.773790
 21
48.017302
  0
LINE
  8
2
  6
CONTINUOUS
 10
101.643790
 20
48.017302
 11
101.643790
 21
48.367302
  0
LINE
  8
2
  6
CONTINUOUS
 10
112.643790
 20
48.017302
 11
112.643790
 21
48.367302
  0
LINE
  8
2
  6
CONTINUOUS
 10
102.793790
 20
48.367302
 11
102.793790
 21
48.017302
  0
LINE
  8
2
  6
CONTINUOUS
 10
104.593790
 20
48.017302
 11
104.593790
 21
47.667302
  0
LINE
  8
2
  6
CONTINUOUS
 10
105.973790
 20
48.017302
 11
105.973790
 21
47.667302
  0
LINE
  8
2
  6
CONTINUOUS
 10
107.783790
 20
48.017302
 11
107.783790
 21
47.667302
  0
LINE
  8
2
  6
CONTINUOUS
 10
109.163790
 20
48.017302
 11
109.163790
 21
47.667302
  0
LINE
  8
2
  6
CONTINUOUS
 10
110.773790
 20
48.017302
 11
110.773790
 21
47.667302
  0
LINE
  8
2
  6
CONTINUOUS
 10
101.643790
 20
47.667302
 11
101.643790
 21
48.017302
  0
LINE
  8
2
  6
CONTINUOUS
 10
112.643790
 20
47.667302
 11
112.643790
 21
48.017302
  0
LINE
  8
2
  6
CONTINUOUS
 10
102.793790
 20
48.017302
 11
102.793790
 21
47.667302
  0
LINE
  8
2
  6
CONTINUOUS
 10
104.593790
 20
47.667302
 11
104.593790
 21
47.317302
  0
LINE
  8
2
  6
CONTINUOUS
 10
105.973790
 20
47.667302
 11
105.973790
 21
47.317302
  0
LINE
  8
2
  6
CONTINUOUS
 10
107.783790
 20
47.667302
 11
107.783790
 21
47.317302
  0
LINE
  8
2
  6
CONTINUOUS
 10
109.163790
 20
47.667302
 11
109.163790
 21
47.317302
  0
LINE
  8
2
  6
CONTINUOUS
 10
110.773790
 20
47.667302
 11
110.773790
 21
47.317302
  0
LINE
  8
2
  6
CONTINUOUS
 10
101.643790
 20
47.317302
 11
101.643790
 21
47.667302
  0
LINE
  8
2
  6
CONTINUOUS
 10
112.643790
 20
47.317302
 11
112.643790
 21
47.667302
  0
LINE
  8
2
  6
CONTINUOUS
 10
102.793790
 20
47.667302
 11
102.793790
 21
47.317302
  0
LINE
  8
2
  6
CONTINUOUS
 10
104.593790
 20
47.317302
 11
104.593790
 21
46.967302
  0
LINE
  8
2
  6
CONTINUOUS
 10
105.973790
 20
47.317302
 11
105.973790
 21
46.967302
  0
LINE
  8
2
  6
CONTINUOUS
 10
107.783790
 20
47.317302
 11
107.783790
 21
46.967302
  0
LINE
  8
2
  6
CONTINUOUS
 10
109.163790
 20
47.317302
 11
109.163790
 21
46.967302
  0
LINE
  8
2
  6
CONTINUOUS
 10
110.773790
 20
47.317302
 11
110.773790
 21
46.967302
  0
LINE
  8
2
  6
CONTINUOUS
 10
101.643790
 20
46.967302
 11
101.643790
 21
47.317302
  0
LINE
  8
2
  6
CONTINUOUS
 10
112.643790
 20
46.967302
 11
112.643790
 21
47.317302
  0
LINE
  8
2
  6
CONTINUOUS
 10
102.793790
 20
47.317302
 11
102.793790
 21
46.967302
  0
LINE
  8
2
  6
CONTINUOUS
 10
104.593790
 20
46.967302
 11
104.593790
 21
46.617302
  0
LINE
  8
2
  6
CONTINUOUS
 10
105.973790
 20
46.967302
 11
105.973790
 21
46.617302
  0
LINE
  8
2
  6
CONTINUOUS
 10
107.783790
 20
46.967302
 11
107.783790
 21
46.617302
  0
LINE
  8
2
  6
CONTINUOUS
 10
109.163790
 20
46.967302
 11
109.163790
 21
46.617302
  0
LINE
  8
2
  6
CONTINUOUS
 10
110.773790
 20
46.967302
 11
110.773790
 21
46.617302
  0
LINE
  8
2
  6
CONTINUOUS
 10
101.643790
 20
46.617302
 11
101.643790
 21
46.967302
  0
LINE
  8
2
  6
CONTINUOUS
 10
112.643790
 20
46.617302
 11
112.643790
 21
46.967302
  0
LINE
  8
2
  6
CONTINUOUS
 10
102.793790
 20
46.967302
 11
102.793790
 21
46.617302
  0
LINE
  8
2
  6
CONTINUOUS
 10
104.593790
 20
46.617302
 11
104.593790
 21
46.267302
  0
LINE
  8
2
  6
CONTINUOUS
 10
105.973790
 20
46.617302
 11
105.973790
 21
46.267302
  0
LINE
  8
2
  6
CONTINUOUS
 10
107.783790
 20
46.617302
 11
107.783790
 21
46.267302
  0
LINE
  8
2
  6
CONTINUOUS
 10
109.163790
 20
46.617302
 11
109.163790
 21
46.267302
  0
LINE
  8
2
  6
CONTINUOUS
 10
110.773790
 20
46.617302
 11
110.773790
 21
46.267302
  0
LINE
  8
2
  6
CONTINUOUS
 10
101.643790
 20
46.267302
 11
101.643790
 21
46.617302
  0
LINE
  8
2
  6
CONTINUOUS
 10
112.643790
 20
46.267302
 11
112.643790
 21
46.617302
  0
LINE
  8
2
  6
CONTINUOUS
 10
102.793790
 20
46.617302
 11
102.793790
 21
46.267302
  0
LINE
  8
2
  6
CONTINUOUS
 10
104.593790
 20
46.267302
 11
104.593790
 21
45.917302
  0
LINE
  8
2
  6
CONTINUOUS
 10
105.973790
 20
46.267302
 11
105.973790
 21
45.917302
  0
LINE
  8
2
  6
CONTINUOUS
 10
107.783790
 20
46.267302
 11
107.783790
 21
45.917302
  0
LINE
  8
2
  6
CONTINUOUS
 10
109.163790
 20
46.267302
 11
109.163790
 21
45.917302
  0
LINE
  8
2
  6
CONTINUOUS
 10
110.773790
 20
46.267302
 11
110.773790
 21
45.917302
  0
LINE
  8
2
  6
CONTINUOUS
 10
101.643790
 20
45.917302
 11
101.643790
 21
46.267302
  0
LINE
  8
2
  6
CONTINUOUS
 10
112.643790
 20
45.917302
 11
112.643790
 21
46.267302
  0
LINE
  8
2
  6
CONTINUOUS
 10
102.793790
 20
46.267302
 11
102.793790
 21
45.917302
  0
LINE
  8
2
  6
CONTINUOUS
 10
104.593790
 20
45.917302
 11
104.593790
 21
45.567302
  0
LINE
  8
2
  6
CONTINUOUS
 10
105.973790
 20
45.917302
 11
105.973790
 21
45.567302
  0
LINE
  8
2
  6
CONTINUOUS
 10
107.783790
 20
45.917302
 11
107.783790
 21
45.567302
  0
LINE
  8
2
  6
CONTINUOUS
 10
109.163790
 20
45.917302
 11
109.163790
 21
45.567302
  0
LINE
  8
2
  6
CONTINUOUS
 10
110.773790
 20
45.917302
 11
110.773790
 21
45.567302
  0
LINE
  8
2
  6
CONTINUOUS
 10
101.643790
 20
45.567302
 11
101.643790
 21
45.917302
  0
LINE
  8
2
  6
CONTINUOUS
 10
112.643790
 20
45.567302
 11
112.643790
 21
45.917302
  0
LINE
  8
2
  6
CONTINUOUS
 10
102.793790
 20
45.917302
 11
102.793790
 21
45.567302
  0
LINE
  8
2
  6
CONTINUOUS
 10
104.593790
 20
45.567302
 11
104.593790
 21
45.217302
  0
LINE
  8
2
  6
CONTINUOUS
 10
105.973790
 20
45.567302
 11
105.973790
 21
45.217302
  0
LINE
  8
2
  6
CONTINUOUS
 10
107.783790
 20
45.567302
 11
107.783790
 21
45.217302
  0
LINE
  8
2
  6
CONTINUOUS
 10
109.163790
 20
45.567302
 11
109.163790
 21
45.217302
  0
LINE
  8
2
  6
CONTINUOUS
 10
110.773790
 20
45.567302
 11
110.773790
 21
45.217302
  0
LINE
  8
2
  6
CONTINUOUS
 10
101.643790
 20
45.217302
 11
101.643790
 21
45.567302
  0
LINE
  8
2
  6
CONTINUOUS
 10
112.643790
 20
45.217302
 11
112.643790
 21
45.567302
  0
LINE
  8
2
  6
CONTINUOUS
 10
102.793790
 20
45.567302
 11
102.793790
 21
45.217302
  0
LINE
  8
2
  6
CONTINUOUS
 10
104.593790
 20
45.217302
 11
104.593790
 21
44.867302
  0
LINE
  8
2
  6
CONTINUOUS
 10
105.973790
 20
45.217302
 11
105.973790
 21
44.867302
  0
LINE
  8
2
  6
CONTINUOUS
 10
107.783790
 20
45.217302
 11
107.783790
 21
44.867302
  0
LINE
  8
2
  6
CONTINUOUS
 10
109.163790
 20
45.217302
 11
109.163790
 21
44.867302
  0
LINE
  8
2
  6
CONTINUOUS
 10
110.773790
 20
45.217302
 11
110.773790
 21
44.867302
  0
LINE
  8
2
  6
CONTINUOUS
 10
101.643790
 20
44.867302
 11
101.643790
 21
45.217302
  0
LINE
  8
2
  6
CONTINUOUS
 10
112.643790
 20
44.867302
 11
112.643790
 21
45.217302
  0
LINE
  8
2
  6
CONTINUOUS
 10
102.793790
 20
45.217302
 11
102.793790
 21
44.867302
  0
LINE
  8
2
  6
CONTINUOUS
 10
104.593790
 20
44.867302
 11
104.593790
 21
44.517303
  0
LINE
  8
2
  6
CONTINUOUS
 10
105.973790
 20
44.867302
 11
105.973790
 21
44.517303
  0
LINE
  8
2
  6
CONTINUOUS
 10
107.783790
 20
44.867302
 11
107.783790
 21
44.517303
  0
LINE
  8
2
  6
CONTINUOUS
 10
109.163790
 20
44.867302
 11
109.163790
 21
44.517303
  0
LINE
  8
2
  6
CONTINUOUS
 10
110.773790
 20
44.867302
 11
110.773790
 21
44.517303
  0
LINE
  8
2
  6
CONTINUOUS
 10
101.643790
 20
44.517303
 11
101.643790
 21
44.867302
  0
LINE
  8
2
  6
CONTINUOUS
 10
112.643790
 20
44.517303
 11
112.643790
 21
44.867302
  0
LINE
  8
2
  6
CONTINUOUS
 10
102.793790
 20
44.867302
 11
102.793790
 21
44.517303
  0
LINE
  8
2
  6
CONTINUOUS
 10
104.593790
 20
44.517303
 11
104.593790
 21
44.167303
  0
LINE
  8
2
  6
CONTINUOUS
 10
105.973790
 20
44.517303
 11
105.973790
 21
44.167303
  0
LINE
  8
2
  6
CONTINUOUS
 10
107.783790
 20
44.517303
 11
107.783790
 21
44.167303
  0
LINE
  8
2
  6
CONTINUOUS
 10
109.163790
 20
44.517303
 11
109.163790
 21
44.167303
  0
LINE
  8
2
  6
CONTINUOUS
 10
110.773790
 20
44.517303
 11
110.773790
 21
44.167303
  0
LINE
  8
2
  6
CONTINUOUS
 10
101.643790
 20
44.167303
 11
101.643790
 21
44.517303
  0
LINE
  8
2
  6
CONTINUOUS
 10
112.643790
 20
44.167303
 11
112.643790
 21
44.517303
  0
LINE
  8
2
  6
CONTINUOUS
 10
102.793790
 20
44.517303
 11
102.793790
 21
44.167303
  0
LINE
  8
2
  6
CONTINUOUS
 10
104.593790
 20
44.167303
 11
104.593790
 21
43.817303
  0
LINE
  8
2
  6
CONTINUOUS
 10
105.973790
 20
44.167303
 11
105.973790
 21
43.817303
  0
LINE
  8
2
  6
CONTINUOUS
 10
107.783790
 20
44.167303
 11
107.783790
 21
43.817303
  0
LINE
  8
2
  6
CONTINUOUS
 10
109.163790
 20
44.167303
 11
109.163790
 21
43.817303
  0
LINE
  8
2
  6
CONTINUOUS
 10
110.773790
 20
44.167303
 11
110.773790
 21
43.817303
  0
LINE
  8
2
  6
CONTINUOUS
 10
101.643790
 20
43.817303
 11
101.643790
 21
44.167303
  0
LINE
  8
2
  6
CONTINUOUS
 10
112.643790
 20
43.817303
 11
112.643790
 21
44.167303
  0
LINE
  8
2
  6
CONTINUOUS
 10
102.793790
 20
44.167303
 11
102.793790
 21
43.817303
  0
LINE
  8
2
  6
CONTINUOUS
 10
104.593790
 20
43.817303
 11
104.593790
 21
43.467303
  0
LINE
  8
2
  6
CONTINUOUS
 10
105.973790
 20
43.817303
 11
105.973790
 21
43.467303
  0
LINE
  8
2
  6
CONTINUOUS
 10
107.783790
 20
43.817303
 11
107.783790
 21
43.467303
  0
LINE
  8
2
  6
CONTINUOUS
 10
109.163790
 20
43.817303
 11
109.163790
 21
43.467303
  0
LINE
  8
2
  6
CONTINUOUS
 10
110.773790
 20
43.817303
 11
110.773790
 21
43.467303
  0
LINE
  8
2
  6
CONTINUOUS
 10
101.643790
 20
43.467303
 11
101.643790
 21
43.817303
  0
LINE
  8
2
  6
CONTINUOUS
 10
112.643790
 20
43.467303
 11
112.643790
 21
43.817303
  0
LINE
  8
2
  6
CONTINUOUS
 10
102.793790
 20
43.817303
 11
102.793790
 21
43.467303
  0
LINE
  8
2
  6
CONTINUOUS
 10
104.593790
 20
43.467303
 11
104.593790
 21
43.117303
  0
LINE
  8
2
  6
CONTINUOUS
 10
105.973790
 20
43.467303
 11
105.973790
 21
43.117303
  0
LINE
  8
2
  6
CONTINUOUS
 10
107.783790
 20
43.467303
 11
107.783790
 21
43.117303
  0
LINE
  8
2
  6
CONTINUOUS
 10
109.163790
 20
43.467303
 11
109.163790
 21
43.117303
  0
LINE
  8
2
  6
CONTINUOUS
 10
110.773790
 20
43.467303
 11
110.773790
 21
43.117303
  0
LINE
  8
2
  6
CONTINUOUS
 10
101.643790
 20
43.117303
 11
101.643790
 21
43.467303
  0
LINE
  8
2
  6
CONTINUOUS
 10
112.643790
 20
43.117303
 11
112.643790
 21
43.467303
  0
LINE
  8
2
  6
CONTINUOUS
 10
102.793790
 20
43.467303
 11
102.793790
 21
43.117303
  0
LINE
  8
2
  6
CONTINUOUS
 10
104.593790
 20
43.117303
 11
104.593790
 21
42.767303
  0
LINE
  8
2
  6
CONTINUOUS
 10
105.973790
 20
43.117303
 11
105.973790
 21
42.767303
  0
LINE
  8
2
  6
CONTINUOUS
 10
107.783790
 20
43.117303
 11
107.783790
 21
42.767303
  0
LINE
  8
2
  6
CONTINUOUS
 10
109.163790
 20
43.117303
 11
109.163790
 21
42.767303
  0
LINE
  8
2
  6
CONTINUOUS
 10
110.773790
 20
43.117303
 11
110.773790
 21
42.767303
  0
LINE
  8
2
  6
CONTINUOUS
 10
101.643790
 20
42.767303
 11
101.643790
 21
43.117303
  0
LINE
  8
2
  6
CONTINUOUS
 10
112.643790
 20
42.767303
 11
112.643790
 21
43.117303
  0
LINE
  8
2
  6
CONTINUOUS
 10
102.793790
 20
43.117303
 11
102.793790
 21
42.767303
  0
LINE
  8
2
  6
CONTINUOUS
 10
101.643790
 20
42.767303
 11
112.643790
 21
42.767303
  0
LINE
  8
2
  6
CONTINUOUS
 10
101.643790
 20
41.767303
 11
101.643790
 21
40.454803
  0
LINE
  8
2
  6
CONTINUOUS
 10
112.643790
 20
41.767303
 11
112.643790
 21
40.454803
  0
LINE
  8
2
  6
CONTINUOUS
 10
101.643790
 20
41.767303
 11
112.643790
 21
41.767303
  0
LINE
  8
2
  6
CONTINUOUS
 10
101.643790
 20
40.454803
 11
112.643790
 21
40.454803
  0
LINE
  8
2
  6
CONTINUOUS
 10
101.643790
 20
41.329803
 11
112.643790
 21
41.329803
  0
LINE
  8
2
  6
CONTINUOUS
 10
105.973790
 20
40.454803
 11
105.973790
 21
41.329803
  0
LINE
  8
2
  6
CONTINUOUS
 10
104.363790
 20
40.454803
 11
104.363790
 21
41.329803
  0
LINE
  8
2
  6
CONTINUOUS
 10
109.308790
 20
40.454803
 11
109.308790
 21
41.329803
  0
LINE
  8
2
  6
CONTINUOUS
 10
109.308790
 20
40.454803
 11
109.308790
 21
40.104803
  0
LINE
  8
2
  6
CONTINUOUS
 10
105.973790
 20
40.104803
 11
105.973790
 21
40.454803
  0
LINE
  8
2
  6
CONTINUOUS
 10
101.643790
 20
40.104803
 11
101.643790
 21
40.454803
  0
LINE
  8
2
  6
CONTINUOUS
 10
112.643790
 20
40.104803
 11
112.643790
 21
40.454803
  0
LINE
  8
2
  6
CONTINUOUS
 10
104.363790
 20
40.454803
 11
104.363790
 21
40.104803
  0
LINE
  8
2
  6
CONTINUOUS
 10
109.308790
 20
40.104803
 11
109.308790
 21
39.754802
  0
LINE
  8
2
  6
CONTINUOUS
 10
105.973790
 20
39.754802
 11
105.973790
 21
40.104803
  0
LINE
  8
2
  6
CONTINUOUS
 10
101.643790
 20
39.754802
 11
101.643790
 21
40.104803
  0
LINE
  8
2
  6
CONTINUOUS
 10
112.643790
 20
39.754802
 11
112.643790
 21
40.104803
  0
LINE
  8
2
  6
CONTINUOUS
 10
104.363790
 20
40.104803
 11
104.363790
 21
39.754803
  0
LINE
  8
2
  6
CONTINUOUS
 10
109.308790
 20
39.754802
 11
109.308790
 21
39.404802
  0
LINE
  8
2
  6
CONTINUOUS
 10
105.973790
 20
39.404802
 11
105.973790
 21
39.754802
  0
LINE
  8
2
  6
CONTINUOUS
 10
101.643790
 20
39.404802
 11
101.643790
 21
39.754802
  0
LINE
  8
2
  6
CONTINUOUS
 10
112.643790
 20
39.404802
 11
112.643790
 21
39.754802
  0
LINE
  8
2
  6
CONTINUOUS
 10
104.363790
 20
39.754802
 11
104.363790
 21
39.404802
  0
LINE
  8
2
  6
CONTINUOUS
 10
109.308790
 20
39.404802
 11
109.308790
 21
39.054802
  0
LINE
  8
2
  6
CONTINUOUS
 10
105.973790
 20
39.054802
 11
105.973790
 21
39.404802
  0
LINE
  8
2
  6
CONTINUOUS
 10
101.643790
 20
39.054802
 11
101.643790
 21
39.404802
  0
LINE
  8
2
  6
CONTINUOUS
 10
112.643790
 20
39.054802
 11
112.643790
 21
39.404802
  0
LINE
  8
2
  6
CONTINUOUS
 10
104.363790
 20
39.404802
 11
104.363790
 21
39.054802
  0
LINE
  8
2
  6
CONTINUOUS
 10
101.643790
 20
39.054802
 11
112.643790
 21
39.054802
  0
LINE
  8
2
  6
CONTINUOUS
 10
101.643790
 20
38.617302
 11
101.643790
 21
39.054802
  0
LINE
  8
2
  6
CONTINUOUS
 10
112.643790
 20
38.617302
 11
112.643790
 21
39.054802
  0
LINE
  8
2
  6
CONTINUOUS
 10
101.643790
 20
39.054802
 11
112.643790
 21
39.054802
  0
LINE
  8
2
  6
CONTINUOUS
 10
112.643790
 20
38.617302
 11
101.643790
 21
38.617302
  0
LINE
  8
2
  6
CONTINUOUS
 10
101.643790
 20
38.617302
 11
112.643790
 21
38.617302
  0
POLYLINE
  8
12
  6
CONTINUOUS
 66
     1
  0
VERTEX
  8
12
  6
CONTINUOUS
 10
-0.000072
 20
59.400002
  0
VERTEX
  8
12
  6
CONTINUOUS
 10
118.899928
 20
59.400002
  0
VERTEX
  8
12
  6
CONTINUOUS
 10
118.899928
 20
0.000000
  0
VERTEX
  8
12
  6
CONTINUOUS
 10
-0.000072
 20
0.000000
  0
VERTEX
  8
12
  6
CONTINUOUS
 10
-0.000072
 20
59.400002
  0
SEQEND
  8
12
  6
CONTINUOUS
  0
POLYLINE
  8
6
  6
CONTINUOUS
 66
     1
  0
VERTEX
  8
6
  6
CONTINUOUS
 10
2.500000
 20
58.400002
  0
VERTEX
  8
6
  6
CONTINUOUS
 10
117.899928
 20
58.400002
  0
VERTEX
  8
6
  6
CONTINUOUS
 10
117.899928
 20
1.000000
  0
VERTEX
  8
6
  6
CONTINUOUS
 10
2.500000
 20
1.000000
  0
VERTEX
  8
6
  6
CONTINUOUS
 10
2.500000
 20
58.400002
  0
SEQEND
  8
6
  6
CONTINUOUS
  0
LINE
  8
12
  6
CONTINUOUS
 10
100.400002
 20
0.000000
 11
100.400002
 21
1.000000
  0
LINE
  8
12
  6
CONTINUOUS
 10
81.900002
 20
0.000000
 11
81.900002
 21
1.000000
  0
LINE
  8
12
  6
CONTINUOUS
 10
63.400002
 20
0.000000
 11
63.400002
 21
1.000000
  0
LINE
  8
12
  6
CONTINUOUS
 10
44.900580
 20
0.000000
 11
44.900580
 21
1.000000
  0
LINE
  8
12
  6
CONTINUOUS
 10
32.950001
 20
0.000000
 11
32.950001
 21
1.000000
  0
LINE
  8
12
  6
CONTINUOUS
 10
20.999421
 20
0.000000
 11
20.999421
 21
1.000000
  0
LINE
  8
12
  6
CONTINUOUS
 10
81.900002
 20
58.400002
 11
81.900002
 21
59.400002
  0
LINE
  8
12
  6
CONTINUOUS
 10
63.400002
 20
58.400002
 11
63.400002
 21
59.400002
  0
LINE
  8
12
  6
CONTINUOUS
 10
44.900580
 20
58.400002
 11
44.900580
 21
59.400002
  0
LINE
  8
12
  6
CONTINUOUS
 10
32.950001
 20
58.400002
 11
32.950001
 21
59.400002
  0
LINE
  8
12
  6
CONTINUOUS
 10
20.999421
 20
58.400002
 11
20.999421
 21
59.400002
  0
LINE
  8
12
  6
CONTINUOUS
 10
100.400002
 20
58.400002
 11
100.400002
 21
59.400002
  0
LINE
  8
12
  6
CONTINUOUS
 10
117.899928
 20
29.700001
 11
118.900002
 21
29.700001
  0
LINE
  8
12
  6
CONTINUOUS
 10
-0.000072
 20
29.700001
 11
2.500000
 21
29.700001
  0
TEXT
  8
2
  6
CONTINUOUS
 10
12.266321
 20
51.021235
 40
0.350000
  1
ESCALA 1:50
  0
TEXT
  8
2
  6
CONTINUOUS
 10
26.387405
 20
17.485094
 40
0.200000
 50
90.000000
  1
98.5
  0
TEXT
  8
2
  6
CONTINUOUS
 10
19.739510
 20
38.119357
 40
0.200000
 50
90.000000
  1
105.1
  0
TEXT
  8
2
  6
CONTINUOUS
 10
75.052325
 20
17.485094
 40
0.200000
 50
90.000000
  1
98.5
  0
TEXT
  8
2
  6
CONTINUOUS
 10
81.563918
 20
38.119357
 40
0.200000
 50
90.000000
  1
105.1
  0
TEXT
  8
2
  6
CONTINUOUS
 10
52.033457
 20
25.760730
 40
0.200000
 50
90.000000
  1
83.4
  0
TEXT
  8
2
  6
CONTINUOUS
 10
58.055814
 20
25.128639
 40
0.200000
 50
90.000000
  1
136.6
  0
TEXT
  8
7
  6
CONTINUOUS
 10
12.277364
 20
51.679842
 40
0.800000
  1
TIPO - Armadura negativa vertical
  0
TEXT
  8
2
  6
CONTINUOUS
 10
28.116370
 20
25.849764
 40
0.200000
 50
90.000000
  1
38
  0
TEXT
  8
2
  6
CONTINUOUS
 10
14.640810
 20
45.060049
 40
0.200000
 50
90.000000
  1
4
  0
TEXT
  8
2
  6
CONTINUOUS
 10
14.806241
 20
46.185746
 40
0.200000
 50
90.000000
  1
122
  0
TEXT
  8
2
  6
CONTINUOUS
 10
14.640810
 20
47.900049
 40
0.200000
 50
90.000000
  1
34
  0
TEXT
  8
2
  6
CONTINUOUS
 10
13.779224
 20
43.465108
 40
0.200000
 50
90.000000
  1
9
  0
TEXT
  8
2
  6
CONTINUOUS
 10
13.779224
 20
43.865108
 40
0.200000
 50
90.000000
  1
N2
  0
TEXT
  8
2
  6
CONTINUOUS
 10
13.779224
 20
44.465108
 40
0.200000
 50
90.000000
  1
%%c 8
  0
TEXT
  8
2
  6
CONTINUOUS
 10
14.234628
 20
43.397282
 40
0.200000
 50
90.000000
  1
C/10
  0
TEXT
  8
2
  6
CONTINUOUS
 10
14.234628
 20
44.397282
 40
0.200000
 50
90.000000
  1
C=160
  0
TEXT
  8
2
  6
CONTINUOUS
 10
85.561796
 20
45.060049
 40
0.200000
 50
90.000000
  1
4
  0
TEXT
  8
2
  6
CONTINUOUS
 10
85.751159
 20
46.139753
 40
0.200000
 50
90.000000
  1
122
  0
TEXT
  8
2
  6
CONTINUOUS
 10
85.861796
 20
47.900049
 40
0.200000
 50
90.000000
  1
34
  0
TEXT
  8
2
  6
CONTINUOUS
 10
84.647647
 20
43.337939
 40
0.200000
 50
90.000000
  1
9
  0
TEXT
  8
2
  6
CONTINUOUS
 10
84.647647
 20
43.737939
 40
0.200000
 50
90.000000
  1
N2
  0
TEXT
  8
2
  6
CONTINUOUS
 10
84.647647
 20
44.337939
 40
0.200000
 50
90.000000
  1
%%c 8
  0
TEXT
  8
2
  6
CONTINUOUS
 10
85.112100
 20
43.313916
 40
0.200000
 50
90.000000
  1
C/10
  0
TEXT
  8
2
  6
CONTINUOUS
 10
85.112100
 20
44.313916
 40
0.200000
 50
90.000000
  1
C=160
  0
TEXT
  8
2
  6
CONTINUOUS
 10
18.677548
 20
37.248667
 40
0.200000
 50
90.000000
  1
4
  0
TEXT
  8
2
  6
CONTINUOUS
 10
18.848624
 20
39.049094
 40
0.200000
 50
90.000000
  1
197
  0
TEXT
  8
2
  6
CONTINUOUS
 10
18.677548
 20
41.588667
 40
0.200000
 50
90.000000
  1
4
  0
TEXT
  8
2
  6
CONTINUOUS
 10
18.023587
 20
37.658298
 40
0.200000
 50
90.000000
  1
37
  0
TEXT
  8
2
  6
CONTINUOUS
 10
18.023587
 20
38.258298
 40
0.200000
 50
90.000000
  1
N3
  0
TEXT
  8
2
  6
CONTINUOUS
 10
18.023587
 20
38.858298
 40
0.200000
 50
90.000000
  1
%%c 8
  0
TEXT
  8
2
  6
CONTINUOUS
 10
18.378510
 20
37.590669
 40
0.200000
 50
90.000000
  1
C/10
  0
TEXT
  8
2
  6
CONTINUOUS
 10
18.378510
 20
38.590669
 40
0.200000
 50
90.000000
  1
C=205
  0
TEXT
  8
2
  6
CONTINUOUS
 10
26.258424
 20
31.300046
 40
0.200000
 50
90.000000
  1
7
  0
TEXT
  8
2
  6
CONTINUOUS
 10
26.447688
 20
33.181276
 40
0.200000
 50
90.000000
  1
244
  0
TEXT
  8
2
  6
CONTINUOUS
 10
26.228424
 20
36.580046
 40
0.200000
 50
90.000000
  1
4
  0
TEXT
  8
2
  6
CONTINUOUS
 10
25.569618
 20
31.411426
 40
0.200000
 50
90.000000
  1
35
  0
TEXT
  8
2
  6
CONTINUOUS
 10
25.569618
 20
32.011426
 40
0.200000
 50
90.000000
  1
N5
  0
TEXT
  8
2
  6
CONTINUOUS
 10
25.569618
 20
32.611426
 40
0.200000
 50
90.000000
  1
%%c 12.5
  0
TEXT
  8
2
  6
CONTINUOUS
 10
25.939697
 20
31.752288
 40
0.200000
 50
90.000000
  1
C/10
  0
TEXT
  8
2
  6
CONTINUOUS
 10
25.939697
 20
32.752288
 40
0.200000
 50
90.000000
  1
C=255
  0
TEXT
  8
2
  6
CONTINUOUS
 10
32.204966
 20
31.250046
 40
0.200000
 50
90.000000
  1
7
  0
TEXT
  8
2
  6
CONTINUOUS
 10
32.431197
 20
33.211726
 40
0.200000
 50
90.000000
  1
249
  0
TEXT
  8
2
  6
CONTINUOUS
 10
32.574693
 20
36.732875
 40
0.200000
 50
90.000000
  1
34
  0
TEXT
  8
2
  6
CONTINUOUS
 10
31.507459
 20
31.264036
 40
0.200000
 50
90.000000
  1
12
  0
TEXT
  8
2
  6
CONTINUOUS
 10
31.507459
 20
31.864036
 40
0.200000
 50
90.000000
  1
N6
  0
TEXT
  8
2
  6
CONTINUOUS
 10
31.507459
 20
32.464036
 40
0.200000
 50
90.000000
  1
%%c 12.5
  0
TEXT
  8
2
  6
CONTINUOUS
 10
31.883015
 20
31.633027
 40
0.200000
 50
90.000000
  1
C/20
  0
TEXT
  8
2
  6
CONTINUOUS
 10
31.883015
 20
32.633027
 40
0.200000
 50
90.000000
  1
C=290
  0
TEXT
  8
2
  6
CONTINUOUS
 10
21.035356
 20
31.670046
 40
0.200000
 50
90.000000
  1
8
  0
TEXT
  8
2
  6
CONTINUOUS
 10
21.233996
 20
33.187861
 40
0.200000
 50
90.000000
  1
207
  0
TEXT
  8
2
  6
CONTINUOUS
 10
21.005356
 20
36.210046
 40
0.200000
 50
90.000000
  1
5
  0
TEXT
  8
2
  6
CONTINUOUS
 10
20.218523
 20
31.541511
 40
0.200000
 50
90.000000
  1
11
  0
TEXT
  8
2
  6
CONTINUOUS
 10
20.218523
 20
32.141511
 40
0.200000
 50
90.000000
  1
N4
  0
TEXT
  8
2
  6
CONTINUOUS
 10
20.218523
 20
32.741511
 40
0.200000
 50
90.000000
  1
%%c 10
  0
TEXT
  8
2
  6
CONTINUOUS
 10
20.657748
 20
31.412957
 40
0.200000
 50
90.000000
  1
C/17.5
  0
TEXT
  8
2
  6
CONTINUOUS
 10
20.657748
 20
32.812957
 40
0.200000
 50
90.000000
  1
C=220
  0
TEXT
  8
2
  6
CONTINUOUS
 10
35.595300
 20
32.140046
 40
0.200000
 50
90.000000
  1
6
  0
TEXT
  8
2
  6
CONTINUOUS
 10
35.804783
 20
33.271407
 40
0.200000
 50
90.000000
  1
160
  0
TEXT
  8
2
  6
CONTINUOUS
 10
35.575300
 20
35.740046
 40
0.200000
 50
90.000000
  1
4
  0
TEXT
  8
2
  6
CONTINUOUS
 10
34.763866
 20
31.439464
 40
0.200000
 50
90.000000
  1
11
  0
TEXT
  8
2
  6
CONTINUOUS
 10
34.763866
 20
32.039464
 40
0.200000
 50
90.000000
  1
N7
  0
TEXT
  8
2
  6
CONTINUOUS
 10
34.763866
 20
32.639464
 40
0.200000
 50
90.000000
  1
%%c 6.3
  0
TEXT
  8
2
  6
CONTINUOUS
 10
35.163111
 20
31.368170
 40
0.200000
 50
90.000000
  1
C/12.5
  0
TEXT
  8
2
  6
CONTINUOUS
 10
35.163111
 20
32.768170
 40
0.200000
 50
90.000000
  1
C=170
  0
TEXT
  8
2
  6
CONTINUOUS
 10
13.141394
 20
39.214428
 40
0.200000
 50
90.000000
  1
36
  0
TEXT
  8
2
  6
CONTINUOUS
 10
13.170374
 20
40.395046
 40
0.200000
 50
90.000000
  1
90
  0
TEXT
  8
2
  6
CONTINUOUS
 10
13.010374
 20
41.590046
 40
0.200000
 50
90.000000
  1
4
  0
TEXT
  8
2
  6
CONTINUOUS
 10
12.329865
 20
40.502027
 40
0.200000
 50
90.000000
  1
14
  0
TEXT
  8
2
  6
CONTINUOUS
 10
12.329865
 20
41.102027
 40
0.200000
 50
90.000000
  1
N1
  0
TEXT
  8
2
  6
CONTINUOUS
 10
12.329865
 20
41.702027
 40
0.200000
 50
90.000000
  1
%%c 6.3
  0
TEXT
  8
2
  6
CONTINUOUS
 10
12.661527
 20
40.490751
 40
0.200000
 50
90.000000
  1
C/15
  0
TEXT
  8
2
  6
CONTINUOUS
 10
12.661527
 20
41.490751
 40
0.200000
 50
90.000000
  1
C=130
  0
TEXT
  8
2
  6
CONTINUOUS
 10
22.790300
 20
23.570048
 40
0.200000
 50
90.000000
  1
4
  0
TEXT
  8
2
  6
CONTINUOUS
 10
23.011930
 20
24.652922
 40
0.200000
 50
90.000000
  1
159
  0
TEXT
  8
2
  6
CONTINUOUS
 10
22.820300
 20
27.150048
 40
0.200000
 50
90.000000
  1
7
  0
TEXT
  8
2
  6
CONTINUOUS
 10
22.016145
 20
22.784319
 40
0.200000
 50
90.000000
  1
29
  0
TEXT
  8
2
  6
CONTINUOUS
 10
22.016145
 20
23.384319
 40
0.200000
 50
90.000000
  1
N10
  0
TEXT
  8
2
  6
CONTINUOUS
 10
22.016145
 20
24.184319
 40
0.200000
 50
90.000000
  1
%%c 6.3
  0
TEXT
  8
2
  6
CONTINUOUS
 10
22.412519
 20
22.837883
 40
0.200000
 50
90.000000
  1
C/12.5
  0
TEXT
  8
2
  6
CONTINUOUS
 10
22.412519
 20
24.237883
 40
0.200000
 50
90.000000
  1
C=170
  0
TEXT
  8
2
  6
CONTINUOUS
 10
20.433708
 20
18.420164
 40
0.200000
 50
90.000000
  1
35
  0
TEXT
  8
2
  6
CONTINUOUS
 10
20.446282
 20
20.120703
 40
0.200000
 50
90.000000
  1
110
  0
TEXT
  8
2
  6
CONTINUOUS
 10
20.285468
 20
21.241408
 40
0.200000
 50
90.000000
  1
5
  0
TEXT
  8
2
  6
CONTINUOUS
 10
19.587028
 20
19.957609
 40
0.200000
 50
90.000000
  1
5
  0
TEXT
  8
2
  6
CONTINUOUS
 10
19.587028
 20
20.357609
 40
0.200000
 50
90.000000
  1
N9
  0
TEXT
  8
2
  6
CONTINUOUS
 10
19.587028
 20
20.957609
 40
0.200000
 50
90.000000
  1
%%c 10
  0
TEXT
  8
2
  6
CONTINUOUS
 10
19.899663
 20
19.944305
 40
0.200000
 50
90.000000
  1
C/20
  0
TEXT
  8
2
  6
CONTINUOUS
 10
19.899663
 20
20.944305
 40
0.200000
 50
90.000000
  1
C=150
  0
TEXT
  8
2
  6
CONTINUOUS
 10
25.496995
 20
16.580141
 40
0.200000
 50
90.000000
  1
4
  0
TEXT
  8
2
  6
CONTINUOUS
 10
25.687533
 20
18.209527
 40
0.200000
 50
90.000000
  1
192
  0
TEXT
  8
2
  6
CONTINUOUS
 10
25.496995
 20
20.820141
 40
0.200000
 50
90.000000
  1
4
  0
TEXT
  8
2
  6
CONTINUOUS
 10
24.859601
 20
16.729130
 40
0.200000
 50
90.000000
  1
18
  0
TEXT
  8
2
  6
CONTINUOUS
 10
24.859601
 20
17.329130
 40
0.200000
 50
90.000000
  1
N12
  0
TEXT
  8
2
  6
CONTINUOUS
 10
24.859601
 20
18.129130
 40
0.200000
 50
90.000000
  1
%%c 8
  0
TEXT
  8
2
  6
CONTINUOUS
 10
25.190724
 20
16.797303
 40
0.200000
 50
90.000000
  1
C/15
  0
TEXT
  8
2
  6
CONTINUOUS
 10
25.190724
 20
17.797303
 40
0.200000
 50
90.000000
  1
C=200
  0
TEXT
  8
2
  6
CONTINUOUS
 10
24.423682
 20
10.805091
 40
0.200000
 50
90.000000
  1
34
  0
TEXT
  8
2
  6
CONTINUOUS
 10
24.311300
 20
12.303471
 40
0.200000
 50
90.000000
  1
102
  0
TEXT
  8
2
  6
CONTINUOUS
 10
24.257503
 20
13.518476
 40
0.200000
 50
90.000000
  1
4
  0
TEXT
  8
2
  6
CONTINUOUS
 10
23.559057
 20
12.154499
 40
0.200000
 50
90.000000
  1
4
  0
TEXT
  8
2
  6
CONTINUOUS
 10
23.559057
 20
12.554499
 40
0.200000
 50
90.000000
  1
N11
  0
TEXT
  8
2
  6
CONTINUOUS
 10
23.559057
 20
13.354499
 40
0.200000
 50
90.000000
  1
%%c 6.3
  0
TEXT
  8
2
  6
CONTINUOUS
 10
23.883402
 20
12.165494
 40
0.200000
 50
90.000000
  1
C/15
  0
TEXT
  8
2
  6
CONTINUOUS
 10
23.883402
 20
13.165494
 40
0.200000
 50
90.000000
  1
C=140
  0
TEXT
  8
2
  6
CONTINUOUS
 10
36.565254
 20
19.036689
 40
0.200000
 50
90.000000
  1
7
  0
TEXT
  8
2
  6
CONTINUOUS
 10
36.740652
 20
21.682979
 40
0.200000
 50
90.000000
  1
202
  0
TEXT
  8
2
  6
CONTINUOUS
 10
36.555254
 20
23.476689
 40
0.200000
 50
90.000000
  1
6
  0
TEXT
  8
2
  6
CONTINUOUS
 10
35.775534
 20
21.728923
 40
0.200000
 50
90.000000
  1
23
  0
TEXT
  8
2
  6
CONTINUOUS
 10
35.775534
 20
22.328923
 40
0.200000
 50
90.000000
  1
N16
  0
TEXT
  8
2
  6
CONTINUOUS
 10
35.775534
 20
23.128923
 40
0.200000
 50
90.000000
  1
%%c 6.3
  0
TEXT
  8
2
  6
CONTINUOUS
 10
36.194307
 20
21.738662
 40
0.200000
 50
90.000000
  1
C/10
  0
TEXT
  8
2
  6
CONTINUOUS
 10
36.194307
 20
22.738662
 40
0.200000
 50
90.000000
  1
C=215
  0
TEXT
  8
2
  6
CONTINUOUS
 10
49.507422
 20
16.264480
 40
0.200000
 50
90.000000
  1
6
  0
TEXT
  8
2
  6
CONTINUOUS
 10
49.666878
 20
17.948637
 40
0.200000
 50
90.000000
  1
178
  0
TEXT
  8
2
  6
CONTINUOUS
 10
49.507422
 20
20.224480
 40
0.200000
 50
90.000000
  1
6
  0
TEXT
  8
2
  6
CONTINUOUS
 10
48.837193
 20
16.468391
 40
0.200000
 50
90.000000
  1
26
  0
TEXT
  8
2
  6
CONTINUOUS
 10
48.837193
 20
17.068391
 40
0.200000
 50
90.000000
  1
N22
  0
TEXT
  8
2
  6
CONTINUOUS
 10
48.837193
 20
17.868391
 40
0.200000
 50
90.000000
  1
%%c 8
  0
TEXT
  8
2
  6
CONTINUOUS
 10
49.187180
 20
16.494316
 40
0.200000
 50
90.000000
  1
C/10
  0
TEXT
  8
2
  6
CONTINUOUS
 10
49.187180
 20
17.494316
 40
0.200000
 50
90.000000
  1
C=190
  0
TEXT
  8
2
  6
CONTINUOUS
 10
54.331898
 20
16.421285
 40
0.200000
 50
90.000000
  1
6
  0
TEXT
  8
2
  6
CONTINUOUS
 10
54.366549
 20
17.792302
 40
0.200000
 50
90.000000
  1
198
  0
TEXT
  8
2
  6
CONTINUOUS
 10
54.232415
 20
20.786249
 40
0.200000
 50
90.000000
  1
6
  0
TEXT
  8
2
  6
CONTINUOUS
 10
53.509525
 20
15.971125
 40
0.200000
 50
90.000000
  1
11
  0
TEXT
  8
2
  6
CONTINUOUS
 10
53.509525
 20
16.571125
 40
0.200000
 50
90.000000
  1
N20
  0
TEXT
  8
2
  6
CONTINUOUS
 10
53.509525
 20
17.371125
 40
0.200000
 50
90.000000
  1
%%c 6.3
  0
TEXT
  8
2
  6
CONTINUOUS
 10
53.884473
 20
16.013976
 40
0.200000
 50
90.000000
  1
C/12.5
  0
TEXT
  8
2
  6
CONTINUOUS
 10
53.884473
 20
17.413976
 40
0.200000
 50
90.000000
  1
C=210
  0
TEXT
  8
2
  6
CONTINUOUS
 10
46.527903
 20
16.440542
 40
0.200000
 50
90.000000
  1
6
  0
TEXT
  8
2
  6
CONTINUOUS
 10
46.599038
 20
17.814618
 40
0.200000
 50
90.000000
  1
198
  0
TEXT
  8
2
  6
CONTINUOUS
 10
46.435637
 20
20.786249
 40
0.200000
 50
90.000000
  1
6
  0
TEXT
  8
2
  6
CONTINUOUS
 10
45.649190
 20
16.025120
 40
0.200000
 50
90.000000
  1
11
  0
TEXT
  8
2
  6
CONTINUOUS
 10
45.649190
 20
16.625120
 40
0.200000
 50
90.000000
  1
N20
  0
TEXT
  8
2
  6
CONTINUOUS
 10
45.649190
 20
17.425120
 40
0.200000
 50
90.000000
  1
%%c 6.3
  0
TEXT
  8
2
  6
CONTINUOUS
 10
46.025102
 20
16.038082
 40
0.200000
 50
90.000000
  1
C/12.5
  0
TEXT
  8
2
  6
CONTINUOUS
 10
46.025102
 20
17.438082
 40
0.200000
 50
90.000000
  1
C=210
  0
TEXT
  8
2
  6
CONTINUOUS
 10
63.565346
 20
19.036689
 40
0.200000
 50
90.000000
  1
7
  0
TEXT
  8
2
  6
CONTINUOUS
 10
63.732720
 20
21.662706
 40
0.200000
 50
90.000000
  1
202
  0
TEXT
  8
2
  6
CONTINUOUS
 10
63.666750
 20
23.543671
 40
0.200000
 50
90.000000
  1
6
  0
TEXT
  8
2
  6
CONTINUOUS
 10
62.850424
 20
21.762803
 40
0.200000
 50
90.000000
  1
23
  0
TEXT
  8
2
  6
CONTINUOUS
 10
62.850424
 20
22.362803
 40
0.200000
 50
90.000000
  1
N16
  0
TEXT
  8
2
  6
CONTINUOUS
 10
62.850424
 20
23.162803
 40
0.200000
 50
90.000000
  1
%%c 6.3
  0
TEXT
  8
2
  6
CONTINUOUS
 10
63.217907
 20
21.757207
 40
0.200000
 50
90.000000
  1
C/10
  0
TEXT
  8
2
  6
CONTINUOUS
 10
63.217907
 20
22.757207
 40
0.200000
 50
90.000000
  1
C=215
  0
TEXT
  8
2
  6
CONTINUOUS
 10
76.416618
 20
10.800047
 40
0.200000
 50
90.000000
  1
34
  0
TEXT
  8
2
  6
CONTINUOUS
 10
76.290760
 20
12.208345
 40
0.200000
 50
90.000000
  1
102
  0
TEXT
  8
2
  6
CONTINUOUS
 10
76.116618
 20
13.440047
 40
0.200000
 50
90.000000
  1
4
  0
TEXT
  8
2
  6
CONTINUOUS
 10
75.363826
 20
12.121982
 40
0.200000
 50
90.000000
  1
4
  0
TEXT
  8
2
  6
CONTINUOUS
 10
75.363826
 20
12.521982
 40
0.200000
 50
90.000000
  1
N11
  0
TEXT
  8
2
  6
CONTINUOUS
 10
75.363826
 20
13.321982
 40
0.200000
 50
90.000000
  1
%%c 6.3
  0
TEXT
  8
2
  6
CONTINUOUS
 10
75.726652
 20
12.134076
 40
0.200000
 50
90.000000
  1
C/15
  0
TEXT
  8
2
  6
CONTINUOUS
 10
75.726652
 20
13.134076
 40
0.200000
 50
90.000000
  1
C=140
  0
TEXT
  8
2
  6
CONTINUOUS
 10
74.110656
 20
16.580141
 40
0.200000
 50
90.000000
  1
4
  0
TEXT
  8
2
  6
CONTINUOUS
 10
74.290348
 20
18.264625
 40
0.200000
 50
90.000000
  1
192
  0
TEXT
  8
2
  6
CONTINUOUS
 10
74.110656
 20
20.820141
 40
0.200000
 50
90.000000
  1
4
  0
TEXT
  8
2
  6
CONTINUOUS
 10
73.335270
 20
16.778685
 40
0.200000
 50
90.000000
  1
18
  0
TEXT
  8
2
  6
CONTINUOUS
 10
73.335270
 20
17.378685
 40
0.200000
 50
90.000000
  1
N12
  0
TEXT
  8
2
  6
CONTINUOUS
 10
73.335270
 20
18.178685
 40
0.200000
 50
90.000000
  1
%%c 8
  0
TEXT
  8
2
  6
CONTINUOUS
 10
73.753684
 20
16.825533
 40
0.200000
 50
90.000000
  1
C/15
  0
TEXT
  8
2
  6
CONTINUOUS
 10
73.753684
 20
17.825533
 40
0.200000
 50
90.000000
  1
C=200
  0
TEXT
  8
2
  6
CONTINUOUS
 10
80.320778
 20
18.400048
 40
0.200000
 50
90.000000
  1
35
  0
TEXT
  8
2
  6
CONTINUOUS
 10
80.175643
 20
20.045594
 40
0.200000
 50
90.000000
  1
110
  0
TEXT
  8
2
  6
CONTINUOUS
 10
80.020778
 20
21.200048
 40
0.200000
 50
90.000000
  1
5
  0
TEXT
  8
2
  6
CONTINUOUS
 10
79.293303
 20
20.021060
 40
0.200000
 50
90.000000
  1
5
  0
TEXT
  8
2
  6
CONTINUOUS
 10
79.293303
 20
20.421060
 40
0.200000
 50
90.000000
  1
N9
  0
TEXT
  8
2
  6
CONTINUOUS
 10
79.293303
 20
21.021060
 40
0.200000
 50
90.000000
  1
%%c 10
  0
TEXT
  8
2
  6
CONTINUOUS
 10
79.670887
 20
20.022731
 40
0.200000
 50
90.000000
  1
C/20
  0
TEXT
  8
2
  6
CONTINUOUS
 10
79.670887
 20
21.022731
 40
0.200000
 50
90.000000
  1
C=150
  0
TEXT
  8
2
  6
CONTINUOUS
 10
49.169001
 20
21.124480
 40
0.200000
 50
90.000000
  1
6
  0
TEXT
  8
2
  6
CONTINUOUS
 10
49.309001
 20
22.004480
 40
0.200000
 50
90.000000
  1
78
  0
TEXT
  8
2
  6
CONTINUOUS
 10
49.169001
 20
23.084480
 40
0.200000
 50
90.000000
  1
6
  0
TEXT
  8
2
  6
CONTINUOUS
 10
48.064523
 20
22.752816
 40
0.200000
 50
90.000000
  1
21
  0
TEXT
  8
2
  6
CONTINUOUS
 10
48.064523
 20
23.352816
 40
0.200000
 50
90.000000
  1
N21
  0
TEXT
  8
2
  6
CONTINUOUS
 10
48.064523
 20
24.152816
 40
0.200000
 50
90.000000
  1
%%c 6.3
  0
TEXT
  8
2
  6
CONTINUOUS
 10
48.525431
 20
22.795575
 40
0.200000
 50
90.000000
  1
C/12.5
  0
TEXT
  8
2
  6
CONTINUOUS
 10
48.525431
 20
24.195575
 40
0.200000
 50
90.000000
  1
C=90
  0
TEXT
  8
2
  6
CONTINUOUS
 10
57.233099
 20
23.942798
 40
0.200000
 50
90.000000
  1
6
  0
TEXT
  8
2
  6
CONTINUOUS
 10
57.450322
 20
26.257347
 40
0.200000
 50
90.000000
  1
230
  0
TEXT
  8
2
  6
CONTINUOUS
 10
57.213099
 20
28.942798
 40
0.200000
 50
90.000000
  1
4
  0
TEXT
  8
2
  6
CONTINUOUS
 10
56.629355
 20
24.760291
 40
0.200000
 50
90.000000
  1
16
  0
TEXT
  8
2
  6
CONTINUOUS
 10
56.629355
 20
25.360291
 40
0.200000
 50
90.000000
  1
N24
  0
TEXT
  8
2
  6
CONTINUOUS
 10
56.629355
 20
26.160291
 40
0.200000
 50
90.000000
  1
%%c 8
  0
TEXT
  8
2
  6
CONTINUOUS
 10
56.967400
 20
24.800535
 40
0.200000
 50
90.000000
  1
C/10
  0
TEXT
  8
2
  6
CONTINUOUS
 10
56.967400
 20
25.800535
 40
0.200000
 50
90.000000
  1
C=240
  0
TEXT
  8
2
  6
CONTINUOUS
 10
51.311525
 20
31.184480
 40
0.200000
 50
90.000000
  1
4
  0
TEXT
  8
2
  6
CONTINUOUS
 10
51.471525
 20
32.204480
 40
0.200000
 50
90.000000
  1
92
  0
TEXT
  8
2
  6
CONTINUOUS
 10
51.611525
 20
33.424480
 40
0.200000
 50
90.000000
  1
34
  0
TEXT
  8
2
  6
CONTINUOUS
 10
50.593548
 20
30.453323
 40
0.200000
 50
90.000000
  1
8
  0
TEXT
  8
2
  6
CONTINUOUS
 10
50.593548
 20
30.853323
 40
0.200000
 50
90.000000
  1
N8
  0
TEXT
  8
2
  6
CONTINUOUS
 10
50.593548
 20
31.453323
 40
0.200000
 50
90.000000
  1
%%c 6.3
  0
TEXT
  8
2
  6
CONTINUOUS
 10
50.970639
 20
30.488675
 40
0.200000
 50
90.000000
  1
C/15
  0
TEXT
  8
2
  6
CONTINUOUS
 10
50.970639
 20
31.488675
 40
0.200000
 50
90.000000
  1
C=130
  0
TEXT
  8
2
  6
CONTINUOUS
 10
39.229777
 20
25.244480
 40
0.200000
 50
90.000000
  1
7
  0
TEXT
  8
2
  6
CONTINUOUS
 10
39.359777
 20
26.254480
 40
0.200000
 50
90.000000
  1
91
  0
TEXT
  8
2
  6
CONTINUOUS
 10
39.499577
 20
27.557409
 40
0.200000
 50
90.000000
  1
37
  0
TEXT
  8
2
  6
CONTINUOUS
 10
38.393637
 20
24.221216
 40
0.200000
 50
90.000000
  1
18
  0
TEXT
  8
2
  6
CONTINUOUS
 10
38.393637
 20
24.821216
 40
0.200000
 50
90.000000
  1
N17
  0
TEXT
  8
2
  6
CONTINUOUS
 10
38.393637
 20
25.621216
 40
0.200000
 50
90.000000
  1
%%c 6.3
  0
TEXT
  8
2
  6
CONTINUOUS
 10
38.794296
 20
24.233000
 40
0.200000
 50
90.000000
  1
C/12.5
  0
TEXT
  8
2
  6
CONTINUOUS
 10
38.794296
 20
25.633000
 40
0.200000
 50
90.000000
  1
C=135
  0
TEXT
  8
2
  6
CONTINUOUS
 10
79.301243
 20
31.662116
 40
0.200000
 50
90.000000
  1
8
  0
TEXT
  8
2
  6
CONTINUOUS
 10
79.421031
 20
33.159961
 40
0.200000
 50
90.000000
  1
207
  0
TEXT
  8
2
  6
CONTINUOUS
 10
79.181244
 20
36.210046
 40
0.200000
 50
90.000000
  1
5
  0
TEXT
  8
2
  6
CONTINUOUS
 10
78.433506
 20
31.608552
 40
0.200000
 50
90.000000
  1
11
  0
TEXT
  8
2
  6
CONTINUOUS
 10
78.433506
 20
32.208552
 40
0.200000
 50
90.000000
  1
N4
  0
TEXT
  8
2
  6
CONTINUOUS
 10
78.433506
 20
32.808552
 40
0.200000
 50
90.000000
  1
%%c 10
  0
TEXT
  8
2
  6
CONTINUOUS
 10
78.829879
 20
31.415721
 40
0.200000
 50
90.000000
  1
C/17.5
  0
TEXT
  8
2
  6
CONTINUOUS
 10
78.829879
 20
32.815721
 40
0.200000
 50
90.000000
  1
C=220
  0
TEXT
  8
2
  6
CONTINUOUS
 10
74.410892
 20
31.300046
 40
0.200000
 50
90.000000
  1
7
  0
TEXT
  8
2
  6
CONTINUOUS
 10
74.585070
 20
33.159840
 40
0.200000
 50
90.000000
  1
244
  0
TEXT
  8
2
  6
CONTINUOUS
 10
74.380892
 20
36.580046
 40
0.200000
 50
90.000000
  1
4
  0
TEXT
  8
2
  6
CONTINUOUS
 10
73.746433
 20
31.387570
 40
0.200000
 50
90.000000
  1
35
  0
TEXT
  8
2
  6
CONTINUOUS
 10
73.746433
 20
31.987570
 40
0.200000
 50
90.000000
  1
N5
  0
TEXT
  8
2
  6
CONTINUOUS
 10
73.746433
 20
32.587570
 40
0.200000
 50
90.000000
  1
%%c 12.5
  0
TEXT
  8
2
  6
CONTINUOUS
 10
74.083816
 20
31.676398
 40
0.200000
 50
90.000000
  1
C/10
  0
TEXT
  8
2
  6
CONTINUOUS
 10
74.083816
 20
32.676398
 40
0.200000
 50
90.000000
  1
C=255
  0
TEXT
  8
2
  6
CONTINUOUS
 10
64.595300
 20
32.140046
 40
0.200000
 50
90.000000
  1
6
  0
TEXT
  8
2
  6
CONTINUOUS
 10
64.769843
 20
33.239633
 40
0.200000
 50
90.000000
  1
160
  0
TEXT
  8
2
  6
CONTINUOUS
 10
64.575300
 20
35.740046
 40
0.200000
 50
90.000000
  1
4
  0
TEXT
  8
2
  6
CONTINUOUS
 10
63.799269
 20
31.526391
 40
0.200000
 50
90.000000
  1
11
  0
TEXT
  8
2
  6
CONTINUOUS
 10
63.799269
 20
32.126391
 40
0.200000
 50
90.000000
  1
N7
  0
TEXT
  8
2
  6
CONTINUOUS
 10
63.799269
 20
32.726391
 40
0.200000
 50
90.000000
  1
%%c 6.3
  0
TEXT
  8
2
  6
CONTINUOUS
 10
64.188144
 20
31.487504
 40
0.200000
 50
90.000000
  1
C/12.5
  0
TEXT
  8
2
  6
CONTINUOUS
 10
64.188144
 20
32.887504
 40
0.200000
 50
90.000000
  1
C=170
  0
TEXT
  8
2
  6
CONTINUOUS
 10
68.005634
 20
31.250046
 40
0.200000
 50
90.000000
  1
7
  0
TEXT
  8
2
  6
CONTINUOUS
 10
68.158985
 20
33.161722
 40
0.200000
 50
90.000000
  1
249
  0
TEXT
  8
2
  6
CONTINUOUS
 10
68.301981
 20
36.744043
 40
0.200000
 50
90.000000
  1
34
  0
TEXT
  8
2
  6
CONTINUOUS
 10
67.267232
 20
31.386193
 40
0.200000
 50
90.000000
  1
12
  0
TEXT
  8
2
  6
CONTINUOUS
 10
67.267232
 20
31.986193
 40
0.200000
 50
90.000000
  1
N6
  0
TEXT
  8
2
  6
CONTINUOUS
 10
67.267232
 20
32.586193
 40
0.200000
 50
90.000000
  1
%%c 12.5
  0
TEXT
  8
2
  6
CONTINUOUS
 10
67.656789
 20
31.668621
 40
0.200000
 50
90.000000
  1
C/20
  0
TEXT
  8
2
  6
CONTINUOUS
 10
67.656789
 20
32.668621
 40
0.200000
 50
90.000000
  1
C=290
  0
TEXT
  8
2
  6
CONTINUOUS
 10
80.860207
 20
37.248667
 40
0.200000
 50
90.000000
  1
4
  0
TEXT
  8
2
  6
CONTINUOUS
 10
81.084123
 20
38.995525
 40
0.200000
 50
90.000000
  1
197
  0
TEXT
  8
2
  6
CONTINUOUS
 10
80.860207
 20
41.588667
 40
0.200000
 50
90.000000
  1
4
  0
TEXT
  8
2
  6
CONTINUOUS
 10
80.151511
 20
37.529541
 40
0.200000
 50
90.000000
  1
37
  0
TEXT
  8
2
  6
CONTINUOUS
 10
80.151511
 20
38.129541
 40
0.200000
 50
90.000000
  1
N3
  0
TEXT
  8
2
  6
CONTINUOUS
 10
80.151511
 20
38.729541
 40
0.200000
 50
90.000000
  1
%%c 8
  0
TEXT
  8
2
  6
CONTINUOUS
 10
80.531995
 20
37.522224
 40
0.200000
 50
90.000000
  1
C/10
  0
TEXT
  8
2
  6
CONTINUOUS
 10
80.531995
 20
38.522224
 40
0.200000
 50
90.000000
  1
C=205
  0
TEXT
  8
2
  6
CONTINUOUS
 10
87.121327
 20
39.200046
 40
0.200000
 50
90.000000
  1
36
  0
TEXT
  8
2
  6
CONTINUOUS
 10
86.968923
 20
40.525142
 40
0.200000
 50
90.000000
  1
90
  0
TEXT
  8
2
  6
CONTINUOUS
 10
86.801327
 20
41.590046
 40
0.200000
 50
90.000000
  1
4
  0
TEXT
  8
2
  6
CONTINUOUS
 10
85.997223
 20
40.499250
 40
0.200000
 50
90.000000
  1
14
  0
TEXT
  8
2
  6
CONTINUOUS
 10
85.997223
 20
41.099250
 40
0.200000
 50
90.000000
  1
N1
  0
TEXT
  8
2
  6
CONTINUOUS
 10
85.997223
 20
41.699250
 40
0.200000
 50
90.000000
  1
%%c 6.3
  0
TEXT
  8
2
  6
CONTINUOUS
 10
86.412495
 20
40.654654
 40
0.200000
 50
90.000000
  1
C/15
  0
TEXT
  8
2
  6
CONTINUOUS
 10
86.412495
 20
41.654654
 40
0.200000
 50
90.000000
  1
C=130
  0
TEXT
  8
2
  6
CONTINUOUS
 10
77.489470
 20
23.616926
 40
0.200000
 50
90.000000
  1
4
  0
TEXT
  8
2
  6
CONTINUOUS
 10
77.590300
 20
24.658752
 40
0.200000
 50
90.000000
  1
159
  0
TEXT
  8
2
  6
CONTINUOUS
 10
77.406300
 20
27.150048
 40
0.200000
 50
90.000000
  1
7
  0
TEXT
  8
2
  6
CONTINUOUS
 10
76.652800
 20
22.768472
 40
0.200000
 50
90.000000
  1
29
  0
TEXT
  8
2
  6
CONTINUOUS
 10
76.652800
 20
23.368472
 40
0.200000
 50
90.000000
  1
N10
  0
TEXT
  8
2
  6
CONTINUOUS
 10
76.652800
 20
24.168472
 40
0.200000
 50
90.000000
  1
%%c 6.3
  0
TEXT
  8
2
  6
CONTINUOUS
 10
77.018107
 20
22.803824
 40
0.200000
 50
90.000000
  1
C/12.5
  0
TEXT
  8
2
  6
CONTINUOUS
 10
77.018107
 20
24.203824
 40
0.200000
 50
90.000000
  1
C=170
  0
TEXT
  8
2
  6
CONTINUOUS
 10
42.601477
 20
23.942798
 40
0.200000
 50
90.000000
  1
6
  0
TEXT
  8
2
  6
CONTINUOUS
 10
42.819290
 20
25.618444
 40
0.200000
 50
90.000000
  1
158
  0
TEXT
  8
2
  6
CONTINUOUS
 10
42.901477
 20
27.504478
 40
0.200000
 50
90.000000
  1
36
  0
TEXT
  8
2
  6
CONTINUOUS
 10
41.929544
 20
24.487238
 40
0.200000
 50
90.000000
  1
16
  0
TEXT
  8
2
  6
CONTINUOUS
 10
41.929544
 20
25.087238
 40
0.200000
 50
90.000000
  1
N19
  0
TEXT
  8
2
  6
CONTINUOUS
 10
41.929544
 20
25.887238
 40
0.200000
 50
90.000000
  1
%%c 8
  0
TEXT
  8
2
  6
CONTINUOUS
 10
42.283067
 20
24.510806
 40
0.200000
 50
90.000000
  1
C/10
  0
TEXT
  8
2
  6
CONTINUOUS
 10
42.283067
 20
25.510806
 40
0.200000
 50
90.000000
  1
C=200
  0
TEXT
  8
2
  6
CONTINUOUS
 10
51.338095
 20
25.004292
 40
0.200000
 50
90.000000
  1
6
  0
TEXT
  8
2
  6
CONTINUOUS
 10
51.447370
 20
26.284672
 40
0.200000
 50
90.000000
  1
150
  0
TEXT
  8
2
  6
CONTINUOUS
 10
51.258192
 20
28.406980
 40
0.200000
 50
90.000000
  1
4
  0
TEXT
  8
2
  6
CONTINUOUS
 10
50.546944
 20
24.901484
 40
0.200000
 50
90.000000
  1
43
  0
TEXT
  8
2
  6
CONTINUOUS
 10
50.546944
 20
25.501484
 40
0.200000
 50
90.000000
  1
N23
  0
TEXT
  8
2
  6
CONTINUOUS
 10
50.546944
 20
26.301484
 40
0.200000
 50
90.000000
  1
%%c 8
  0
TEXT
  8
2
  6
CONTINUOUS
 10
50.912250
 20
24.972188
 40
0.200000
 50
90.000000
  1
C/10
  0
TEXT
  8
2
  6
CONTINUOUS
 10
50.912250
 20
25.972188
 40
0.200000
 50
90.000000
  1
C=160
  0
TEXT
  8
2
  6
CONTINUOUS
 10
61.615551
 20
25.250081
 40
0.200000
 50
90.000000
  1
7
  0
TEXT
  8
2
  6
CONTINUOUS
 10
61.651508
 20
26.291266
 40
0.200000
 50
90.000000
  1
91
  0
TEXT
  8
2
  6
CONTINUOUS
 10
61.511531
 20
27.464480
 40
0.200000
 50
90.000000
  1
37
  0
TEXT
  8
2
  6
CONTINUOUS
 10
60.783316
 20
24.285043
 40
0.200000
 50
90.000000
  1
18
  0
TEXT
  8
2
  6
CONTINUOUS
 10
60.783316
 20
24.885043
 40
0.200000
 50
90.000000
  1
N17
  0
TEXT
  8
2
  6
CONTINUOUS
 10
60.783316
 20
25.685043
 40
0.200000
 50
90.000000
  1
%%c 6.3
  0
TEXT
  8
2
  6
CONTINUOUS
 10
61.155166
 20
24.311604
 40
0.200000
 50
90.000000
  1
C/12.5
  0
TEXT
  8
2
  6
CONTINUOUS
 10
61.155166
 20
25.711604
 40
0.200000
 50
90.000000
  1
C=135
  0
TEXT
  8
2
  6
CONTINUOUS
 10
42.412483
 20
17.564480
 40
0.200000
 50
90.000000
  1
7
  0
TEXT
  8
2
  6
CONTINUOUS
 10
42.542483
 20
19.384480
 40
0.200000
 50
90.000000
  1
182
  0
TEXT
  8
2
  6
CONTINUOUS
 10
42.402483
 20
21.604480
 40
0.200000
 50
90.000000
  1
36
  0
TEXT
  8
2
  6
CONTINUOUS
 10
43.112245
 20
20.798676
 40
0.200000
  1
(139)
  0
TEXT
  8
2
  6
CONTINUOUS
 10
41.751073
 20
18.081489
 40
0.200000
 50
90.000000
  1
12
  0
TEXT
  8
2
  6
CONTINUOUS
 10
41.751073
 20
18.681489
 40
0.200000
 50
90.000000
  1
N18
  0
TEXT
  8
2
  6
CONTINUOUS
 10
41.751073
 20
19.481489
 40
0.200000
 50
90.000000
  1
%%c 6.3
  0
TEXT
  8
2
  6
CONTINUOUS
 10
42.114346
 20
18.107346
 40
0.200000
 50
90.000000
  1
C/12.5
  0
TEXT
  8
2
  6
CONTINUOUS
 10
42.114346
 20
19.507346
 40
0.200000
 50
90.000000
  1
C=225
  0
TEXT
  8
2
  6
CONTINUOUS
 10
57.492194
 20
17.564480
 40
0.200000
 50
90.000000
  1
7
  0
TEXT
  8
2
  6
CONTINUOUS
 10
57.622194
 20
19.384480
 40
0.200000
 50
90.000000
  1
182
  0
TEXT
  8
2
  6
CONTINUOUS
 10
57.782194
 20
21.604480
 40
0.200000
 50
90.000000
  1
36
  0
TEXT
  8
2
  6
CONTINUOUS
 10
56.028350
 20
20.683922
 40
0.200000
  1
(139)
  0
TEXT
  8
2
  6
CONTINUOUS
 10
56.724052
 20
17.976988
 40
0.200000
 50
90.000000
  1
12
  0
TEXT
  8
2
  6
CONTINUOUS
 10
56.724052
 20
18.576988
 40
0.200000
 50
90.000000
  1
N18
  0
TEXT
  8
2
  6
CONTINUOUS
 10
56.724052
 20
19.376988
 40
0.200000
 50
90.000000
  1
%%c 6.3
  0
TEXT
  8
2
  6
CONTINUOUS
 10
57.159896
 20
17.961790
 40
0.200000
 50
90.000000
  1
C/12.5
  0
TEXT
  8
2
  6
CONTINUOUS
 10
57.159896
 20
19.361790
 40
0.200000
 50
90.000000
  1
C=225
  0
TEXT
  8
2
  6
CONTINUOUS
 10
27.453257
 20
21.829480
 40
0.200000
 50
90.000000
  1
4
  0
TEXT
  8
2
  6
CONTINUOUS
 10
27.614452
 20
23.056781
 40
0.200000
 50
90.000000
  1
214
  0
TEXT
  8
2
  6
CONTINUOUS
 10
27.577402
 20
26.523505
 40
0.200000
 50
90.000000
  1
7
  0
TEXT
  8
2
  6
CONTINUOUS
 10
26.813314
 20
22.672806
 40
0.200000
 50
90.000000
  1
8
  0
TEXT
  8
2
  6
CONTINUOUS
 10
26.813314
 20
23.072806
 40
0.200000
 50
90.000000
  1
N13
  0
TEXT
  8
2
  6
CONTINUOUS
 10
26.813314
 20
23.872806
 40
0.200000
 50
90.000000
  1
%%c 8
  0
TEXT
  8
2
  6
CONTINUOUS
 10
27.154111
 20
22.516862
 40
0.200000
 50
90.000000
  1
C/15
  0
TEXT
  8
2
  6
CONTINUOUS
 10
27.154111
 20
23.516862
 40
0.200000
 50
90.000000
  1
C=225
  0
TEXT
  8
2
  6
CONTINUOUS
 10
32.450446
 20
20.958775
 40
0.200000
 50
90.000000
  1
7
  0
TEXT
  8
2
  6
CONTINUOUS
 10
32.723440
 20
23.041400
 40
0.200000
 50
90.000000
  1
261
  0
TEXT
  8
2
  6
CONTINUOUS
 10
32.562910
 20
26.514624
 40
0.200000
 50
90.000000
  1
7
  0
TEXT
  8
2
  6
CONTINUOUS
 10
32.200310
 20
21.527982
 40
0.200000
 50
90.000000
  1
9
  0
TEXT
  8
2
  6
CONTINUOUS
 10
32.200310
 20
21.927982
 40
0.200000
 50
90.000000
  1
N15
  0
TEXT
  8
2
  6
CONTINUOUS
 10
32.200310
 20
22.727982
 40
0.200000
 50
90.000000
  1
%%c 6.3
  0
TEXT
  8
2
  6
CONTINUOUS
 10
32.203413
 20
23.965720
 40
0.200000
 50
90.000000
  1
C/15
  0
TEXT
  8
2
  6
CONTINUOUS
 10
32.203413
 20
24.965720
 40
0.200000
 50
90.000000
  1
C=275
  0
TEXT
  8
2
  6
CONTINUOUS
 10
67.630114
 20
20.944480
 40
0.200000
 50
90.000000
  1
7
  0
TEXT
  8
2
  6
CONTINUOUS
 10
67.760114
 20
23.554480
 40
0.200000
 50
90.000000
  1
261
  0
TEXT
  8
2
  6
CONTINUOUS
 10
67.630114
 20
26.564480
 40
0.200000
 50
90.000000
  1
7
  0
TEXT
  8
2
  6
CONTINUOUS
 10
67.360114
 20
21.654480
 40
0.200000
 50
90.000000
  1
9
  0
TEXT
  8
2
  6
CONTINUOUS
 10
67.360114
 20
22.054480
 40
0.200000
 50
90.000000
  1
N15
  0
TEXT
  8
2
  6
CONTINUOUS
 10
67.360114
 20
22.854480
 40
0.200000
 50
90.000000
  1
%%c 6.3
  0
TEXT
  8
2
  6
CONTINUOUS
 10
67.360114
 20
24.054480
 40
0.200000
 50
90.000000
  1
C/15
  0
TEXT
  8
2
  6
CONTINUOUS
 10
67.360114
 20
25.054480
 40
0.200000
 50
90.000000
  1
C=275
  0
TEXT
  8
2
  6
CONTINUOUS
 10
69.989873
 20
19.621234
 40
0.200000
  1
7
  0
TEXT
  8
2
  6
CONTINUOUS
 10
70.319873
 20
22.881234
 40
0.200000
 50
90.000000
  1
326
  0
TEXT
  8
2
  6
CONTINUOUS
 10
69.989873
 20
26.541234
 40
0.200000
  1
7
  0
TEXT
  8
2
  6
CONTINUOUS
 10
69.919873
 20
20.981234
 40
0.200000
 50
90.000000
  1
10
  0
TEXT
  8
2
  6
CONTINUOUS
 10
69.919873
 20
21.581234
 40
0.200000
 50
90.000000
  1
N14
  0
TEXT
  8
2
  6
CONTINUOUS
 10
69.919873
 20
22.381234
 40
0.200000
 50
90.000000
  1
%%c 10
  0
TEXT
  8
2
  6
CONTINUOUS
 10
69.919873
 20
23.381234
 40
0.200000
 50
90.000000
  1
C/15
  0
TEXT
  8
2
  6
CONTINUOUS
 10
69.919873
 20
24.381234
 40
0.200000
 50
90.000000
  1
C=340
  0
TEXT
  8
2
  6
CONTINUOUS
 10
30.278152
 20
19.621234
 40
0.200000
  1
7
  0
TEXT
  8
2
  6
CONTINUOUS
 10
30.608152
 20
22.881234
 40
0.200000
 50
90.000000
  1
326
  0
TEXT
  8
2
  6
CONTINUOUS
 10
30.278152
 20
26.541234
 40
0.200000
  1
7
  0
TEXT
  8
2
  6
CONTINUOUS
 10
30.166453
 20
20.844947
 40
0.200000
 50
90.000000
  1
10
  0
TEXT
  8
2
  6
CONTINUOUS
 10
30.166453
 20
21.444947
 40
0.200000
 50
90.000000
  1
N14
  0
TEXT
  8
2
  6
CONTINUOUS
 10
30.166453
 20
22.244947
 40
0.200000
 50
90.000000
  1
%%c 10
  0
TEXT
  8
2
  6
CONTINUOUS
 10
30.166453
 20
23.244947
 40
0.200000
 50
90.000000
  1
C/15
  0
TEXT
  8
2
  6
CONTINUOUS
 10
30.166453
 20
24.244947
 40
0.200000
 50
90.000000
  1
C=340
  0
TEXT
  8
2
  6
CONTINUOUS
 10
72.859007
 20
21.829480
 40
0.200000
 50
90.000000
  1
4
  0
TEXT
  8
2
  6
CONTINUOUS
 10
73.058814
 20
23.658913
 40
0.200000
 50
90.000000
  1
214
  0
TEXT
  8
2
  6
CONTINUOUS
 10
72.959715
 20
26.587920
 40
0.200000
 50
90.000000
  1
7
  0
TEXT
  8
2
  6
CONTINUOUS
 10
72.197068
 20
22.310772
 40
0.200000
 50
90.000000
  1
8
  0
TEXT
  8
2
  6
CONTINUOUS
 10
72.197068
 20
22.710772
 40
0.200000
 50
90.000000
  1
N13
  0
TEXT
  8
2
  6
CONTINUOUS
 10
72.197068
 20
23.510772
 40
0.200000
 50
90.000000
  1
%%c 8
  0
TEXT
  8
2
  6
CONTINUOUS
 10
72.568100
 20
22.344811
 40
0.200000
 50
90.000000
  1
C/15
  0
TEXT
  8
2
  6
CONTINUOUS
 10
72.568100
 20
23.344811
 40
0.200000
 50
90.000000
  1
C=225
  0
TEXT
  8
2
  6
CONTINUOUS
 10
109.533259
 20
52.573551
 40
0.250000
  1
COMPRIMENTO
  0
TEXT
  8
2
  6
CONTINUOUS
 10
111.103097
 20
52.136051
 40
0.250000
  1
TOTAL
  0
TEXT
  8
2
  6
CONTINUOUS
 10
109.630644
 20
52.136051
 40
0.250000
  1
UNIT
  0
TEXT
  8
2
  6
CONTINUOUS
 10
104.973790
 20
52.573551
 40
0.250000
  1
POS
  0
TEXT
  8
2
  6
CONTINUOUS
 10
106.583790
 20
52.573551
 40
0.250000
  1
BIT
  0
TEXT
  8
2
  6
CONTINUOUS
 10
107.880279
 20
52.573551
 40
0.250000
  1
QUANT
  0
TEXT
  8
2
  6
CONTINUOUS
 10
109.630644
 20
51.698551
 40
0.200000
  1
(cm)
  0
TEXT
  8
2
  6
CONTINUOUS
 10
111.240644
 20
51.698551
 40
0.200000
  1
(cm)
  0
TEXT
  8
2
  6
CONTINUOUS
 10
106.783790
 20
52.136051
 40
0.200000
  1
(mm)
  0
TEXT
  8
2
  6
CONTINUOUS
 10
103.593370
 20
52.573551
 40
0.250000
  1
AÇO
  0
TEXT
  8
2
  6
CONTINUOUS
 10
101.739588
 20
51.261051
 40
0.250000
  1
TIPO - Armadura negativa vertical   (X16)
  0
TEXT
  8
2
  6
CONTINUOUS
 10
102.933451
 20
50.892301
 40
0.200000
  1
     50A
  0
TEXT
  8
2
  6
CONTINUOUS
 10
105.173790
 20
50.892301
 40
0.200000
  1
  1
  0
TEXT
  8
2
  6
CONTINUOUS
 10
106.180333
 20
50.898345
 40
0.200000
  1
    6.3
  0
TEXT
  8
2
  6
CONTINUOUS
 10
108.163790
 20
50.892301
 40
0.200000
  1
  448
  0
TEXT
  8
2
  6
CONTINUOUS
 10
109.373790
 20
50.892301
 40
0.200000
  1
   130
  0
TEXT
  8
2
  6
CONTINUOUS
 10
111.007412
 20
50.892301
 40
0.200000
  1
  58240
  0
TEXT
  8
2
  6
CONTINUOUS
 10
102.933451
 20
50.542301
 40
0.200000
  1
     50A
  0
TEXT
  8
2
  6
CONTINUOUS
 10
105.173790
 20
50.542301
 40
0.200000
  1
  2
  0
TEXT
  8
2
  6
CONTINUOUS
 10
106.180333
 20
50.548345
 40
0.200000
  1
    8
  0
TEXT
  8
2
  6
CONTINUOUS
 10
108.163790
 20
50.542301
 40
0.200000
  1
  288
  0
TEXT
  8
2
  6
CONTINUOUS
 10
109.373790
 20
50.542301
 40
0.200000
  1
   160
  0
TEXT
  8
2
  6
CONTINUOUS
 10
111.007412
 20
50.542301
 40
0.200000
  1
  46080
  0
TEXT
  8
2
  6
CONTINUOUS
 10
102.933451
 20
50.192301
 40
0.200000
  1
     50A
  0
TEXT
  8
2
  6
CONTINUOUS
 10
105.173790
 20
50.192301
 40
0.200000
  1
  3
  0
TEXT
  8
2
  6
CONTINUOUS
 10
106.180333
 20
50.198345
 40
0.200000
  1
    8
  0
TEXT
  8
2
  6
CONTINUOUS
 10
108.163790
 20
50.192301
 40
0.200000
  1
 1184
  0
TEXT
  8
2
  6
CONTINUOUS
 10
109.373790
 20
50.192301
 40
0.200000
  1
   205
  0
TEXT
  8
2
  6
CONTINUOUS
 10
111.007412
 20
50.192301
 40
0.200000
  1
 242720
  0
TEXT
  8
2
  6
CONTINUOUS
 10
102.933451
 20
49.842301
 40
0.200000
  1
     50A
  0
TEXT
  8
2
  6
CONTINUOUS
 10
105.173790
 20
49.842301
 40
0.200000
  1
  4
  0
TEXT
  8
2
  6
CONTINUOUS
 10
106.180333
 20
49.848345
 40
0.200000
  1
   10
  0
TEXT
  8
2
  6
CONTINUOUS
 10
108.163790
 20
49.842301
 40
0.200000
  1
  352
  0
TEXT
  8
2
  6
CONTINUOUS
 10
109.373790
 20
49.842301
 40
0.200000
  1
   220
  0
TEXT
  8
2
  6
CONTINUOUS
 10
111.007412
 20
49.842301
 40
0.200000
  1
  77440
  0
TEXT
  8
2
  6
CONTINUOUS
 10
102.933451
 20
49.492301
 40
0.200000
  1
     50A
  0
TEXT
  8
2
  6
CONTINUOUS
 10
105.173790
 20
49.492301
 40
0.200000
  1
  5
  0
TEXT
  8
2
  6
CONTINUOUS
 10
106.180333
 20
49.498345
 40
0.200000
  1
   12.5
  0
TEXT
  8
2
  6
CONTINUOUS
 10
108.163790
 20
49.492301
 40
0.200000
  1
 1120
  0
TEXT
  8
2
  6
CONTINUOUS
 10
109.373790
 20
49.492301
 40
0.200000
  1
   255
  0
TEXT
  8
2
  6
CONTINUOUS
 10
111.007412
 20
49.492301
 40
0.200000
  1
 285600
  0
TEXT
  8
2
  6
CONTINUOUS
 10
102.933451
 20
49.142301
 40
0.200000
  1
     50A
  0
TEXT
  8
2
  6
CONTINUOUS
 10
105.173790
 20
49.142301
 40
0.200000
  1
  6
  0
TEXT
  8
2
  6
CONTINUOUS
 10
106.180333
 20
49.148345
 40
0.200000
  1
   12.5
  0
TEXT
  8
2
  6
CONTINUOUS
 10
108.163790
 20
49.142301
 40
0.200000
  1
  384
  0
TEXT
  8
2
  6
CONTINUOUS
 10
109.373790
 20
49.142301
 40
0.200000
  1
   290
  0
TEXT
  8
2
  6
CONTINUOUS
 10
111.007412
 20
49.142301
 40
0.200000
  1
 111360
  0
TEXT
  8
2
  6
CONTINUOUS
 10
102.933451
 20
48.792301
 40
0.200000
  1
     50A
  0
TEXT
  8
2
  6
CONTINUOUS
 10
105.173790
 20
48.792301
 40
0.200000
  1
  7
  0
TEXT
  8
2
  6
CONTINUOUS
 10
106.180333
 20
48.798345
 40
0.200000
  1
    6.3
  0
TEXT
  8
2
  6
CONTINUOUS
 10
108.163790
 20
48.792301
 40
0.200000
  1
  352
  0
TEXT
  8
2
  6
CONTINUOUS
 10
109.373790
 20
48.792301
 40
0.200000
  1
   170
  0
TEXT
  8
2
  6
CONTINUOUS
 10
111.007412
 20
48.792301
 40
0.200000
  1
  59840
  0
TEXT
  8
2
  6
CONTINUOUS
 10
102.933451
 20
48.442301
 40
0.200000
  1
     50A
  0
TEXT
  8
2
  6
CONTINUOUS
 10
105.173790
 20
48.442301
 40
0.200000
  1
  8
  0
TEXT
  8
2
  6
CONTINUOUS
 10
106.180333
 20
48.448345
 40
0.200000
  1
    6.3
  0
TEXT
  8
2
  6
CONTINUOUS
 10
108.163790
 20
48.442301
 40
0.200000
  1
  128
  0
TEXT
  8
2
  6
CONTINUOUS
 10
109.373790
 20
48.442301
 40
0.200000
  1
   130
  0
TEXT
  8
2
  6
CONTINUOUS
 10
111.007412
 20
48.442301
 40
0.200000
  1
  16640
  0
TEXT
  8
2
  6
CONTINUOUS
 10
102.933451
 20
48.092301
 40
0.200000
  1
     50A
  0
TEXT
  8
2
  6
CONTINUOUS
 10
105.173790
 20
48.092301
 40
0.200000
  1
  9
  0
TEXT
  8
2
  6
CONTINUOUS
 10
106.180333
 20
48.098345
 40
0.200000
  1
   10
  0
TEXT
  8
2
  6
CONTINUOUS
 10
108.163790
 20
48.092301
 40
0.200000
  1
  160
  0
TEXT
  8
2
  6
CONTINUOUS
 10
109.373790
 20
48.092301
 40
0.200000
  1
   150
  0
TEXT
  8
2
  6
CONTINUOUS
 10
111.007412
 20
48.092301
 40
0.200000
  1
  24000
  0
TEXT
  8
2
  6
CONTINUOUS
 10
102.933451
 20
47.742302
 40
0.200000
  1
     50A
  0
TEXT
  8
2
  6
CONTINUOUS
 10
105.173790
 20
47.742302
 40
0.200000
  1
 10
  0
TEXT
  8
2
  6
CONTINUOUS
 10
106.180333
 20
47.748345
 40
0.200000
  1
    6.3
  0
TEXT
  8
2
  6
CONTINUOUS
 10
108.163790
 20
47.742302
 40
0.200000
  1
  928
  0
TEXT
  8
2
  6
CONTINUOUS
 10
109.373790
 20
47.742302
 40
0.200000
  1
   170
  0
TEXT
  8
2
  6
CONTINUOUS
 10
111.007412
 20
47.742302
 40
0.200000
  1
 157760
  0
TEXT
  8
2
  6
CONTINUOUS
 10
102.933451
 20
47.392302
 40
0.200000
  1
     50A
  0
TEXT
  8
2
  6
CONTINUOUS
 10
105.173790
 20
47.392302
 40
0.200000
  1
 11
  0
TEXT
  8
2
  6
CONTINUOUS
 10
106.180333
 20
47.398346
 40
0.200000
  1
    6.3
  0
TEXT
  8
2
  6
CONTINUOUS
 10
108.163790
 20
47.392302
 40
0.200000
  1
  128
  0
TEXT
  8
2
  6
CONTINUOUS
 10
109.373790
 20
47.392302
 40
0.200000
  1
   140
  0
TEXT
  8
2
  6
CONTINUOUS
 10
111.007412
 20
47.392302
 40
0.200000
  1
  17920
  0
TEXT
  8
2
  6
CONTINUOUS
 10
102.933451
 20
47.042302
 40
0.200000
  1
     50A
  0
TEXT
  8
2
  6
CONTINUOUS
 10
105.173790
 20
47.042302
 40
0.200000
  1
 12
  0
TEXT
  8
2
  6
CONTINUOUS
 10
106.180333
 20
47.048346
 40
0.200000
  1
    8
  0
TEXT
  8
2
  6
CONTINUOUS
 10
108.163790
 20
47.042302
 40
0.200000
  1
  576
  0
TEXT
  8
2
  6
CONTINUOUS
 10
109.373790
 20
47.042302
 40
0.200000
  1
   200
  0
TEXT
  8
2
  6
CONTINUOUS
 10
111.007412
 20
47.042302
 40
0.200000
  1
 115200
  0
TEXT
  8
2
  6
CONTINUOUS
 10
102.933451
 20
46.692302
 40
0.200000
  1
     50A
  0
TEXT
  8
2
  6
CONTINUOUS
 10
105.173790
 20
46.692302
 40
0.200000
  1
 13
  0
TEXT
  8
2
  6
CONTINUOUS
 10
106.180333
 20
46.698346
 40
0.200000
  1
    8
  0
TEXT
  8
2
  6
CONTINUOUS
 10
108.163790
 20
46.692302
 40
0.200000
  1
  256
  0
TEXT
  8
2
  6
CONTINUOUS
 10
109.373790
 20
46.692302
 40
0.200000
  1
   225
  0
TEXT
  8
2
  6
CONTINUOUS
 10
111.007412
 20
46.692302
 40
0.200000
  1
  57600
  0
TEXT
  8
2
  6
CONTINUOUS
 10
102.933451
 20
46.342302
 40
0.200000
  1
     50A
  0
TEXT
  8
2
  6
CONTINUOUS
 10
105.173790
 20
46.342302
 40
0.200000
  1
 14
  0
TEXT
  8
2
  6
CONTINUOUS
 10
106.180333
 20
46.348346
 40
0.200000
  1
   10
  0
TEXT
  8
2
  6
CONTINUOUS
 10
108.163790
 20
46.342302
 40
0.200000
  1
  320
  0
TEXT
  8
2
  6
CONTINUOUS
 10
109.373790
 20
46.342302
 40
0.200000
  1
   340
  0
TEXT
  8
2
  6
CONTINUOUS
 10
111.007412
 20
46.342302
 40
0.200000
  1
 108800
  0
TEXT
  8
2
  6
CONTINUOUS
 10
102.933451
 20
45.992302
 40
0.200000
  1
     50A
  0
TEXT
  8
2
  6
CONTINUOUS
 10
105.173790
 20
45.992302
 40
0.200000
  1
 15
  0
TEXT
  8
2
  6
CONTINUOUS
 10
106.180333
 20
45.998346
 40
0.200000
  1
    6.3
  0
TEXT
  8
2
  6
CONTINUOUS
 10
108.163790
 20
45.992302
 40
0.200000
  1
  288
  0
TEXT
  8
2
  6
CONTINUOUS
 10
109.373790
 20
45.992302
 40
0.200000
  1
   275
  0
TEXT
  8
2
  6
CONTINUOUS
 10
111.007412
 20
45.992302
 40
0.200000
  1
  79200
  0
TEXT
  8
2
  6
CONTINUOUS
 10
102.933451
 20
45.642302
 40
0.200000
  1
     50A
  0
TEXT
  8
2
  6
CONTINUOUS
 10
105.173790
 20
45.642302
 40
0.200000
  1
 16
  0
TEXT
  8
2
  6
CONTINUOUS
 10
106.180333
 20
45.648346
 40
0.200000
  1
    6.3
  0
TEXT
  8
2
  6
CONTINUOUS
 10
108.163790
 20
45.642302
 40
0.200000
  1
  736
  0
TEXT
  8
2
  6
CONTINUOUS
 10
109.373790
 20
45.642302
 40
0.200000
  1
   215
  0
TEXT
  8
2
  6
CONTINUOUS
 10
111.007412
 20
45.642302
 40
0.200000
  1
 158240
  0
TEXT
  8
2
  6
CONTINUOUS
 10
102.933451
 20
45.292302
 40
0.200000
  1
     50A
  0
TEXT
  8
2
  6
CONTINUOUS
 10
105.173790
 20
45.292302
 40
0.200000
  1
 17
  0
TEXT
  8
2
  6
CONTINUOUS
 10
106.180333
 20
45.298346
 40
0.200000
  1
    6.3
  0
TEXT
  8
2
  6
CONTINUOUS
 10
108.163790
 20
45.292302
 40
0.200000
  1
  576
  0
TEXT
  8
2
  6
CONTINUOUS
 10
109.373790
 20
45.292302
 40
0.200000
  1
   135
  0
TEXT
  8
2
  6
CONTINUOUS
 10
111.007412
 20
45.292302
 40
0.200000
  1
  77760
  0
TEXT
  8
2
  6
CONTINUOUS
 10
102.933451
 20
44.942302
 40
0.200000
  1
     50A
  0
TEXT
  8
2
  6
CONTINUOUS
 10
105.173790
 20
44.942302
 40
0.200000
  1
 18
  0
TEXT
  8
2
  6
CONTINUOUS
 10
106.180333
 20
44.948346
 40
0.200000
  1
    6.3
  0
TEXT
  8
2
  6
CONTINUOUS
 10
108.163790
 20
44.942302
 40
0.200000
  1
  384
  0
TEXT
  8
2
  6
CONTINUOUS
 10
109.373790
 20
44.942302
 40
0.200000
  1
   225
  0
TEXT
  8
2
  6
CONTINUOUS
 10
111.007412
 20
44.942302
 40
0.200000
  1
  86400
  0
TEXT
  8
2
  6
CONTINUOUS
 10
102.933451
 20
44.592302
 40
0.200000
  1
     50A
  0
TEXT
  8
2
  6
CONTINUOUS
 10
105.173790
 20
44.592302
 40
0.200000
  1
 19
  0
TEXT
  8
2
  6
CONTINUOUS
 10
106.180333
 20
44.598346
 40
0.200000
  1
    8
  0
TEXT
  8
2
  6
CONTINUOUS
 10
108.163790
 20
44.592302
 40
0.200000
  1
  256
  0
TEXT
  8
2
  6
CONTINUOUS
 10
109.373790
 20
44.592302
 40
0.200000
  1
   200
  0
TEXT
  8
2
  6
CONTINUOUS
 10
111.007412
 20
44.592302
 40
0.200000
  1
  51200
  0
TEXT
  8
2
  6
CONTINUOUS
 10
102.933451
 20
44.242302
 40
0.200000
  1
     50A
  0
TEXT
  8
2
  6
CONTINUOUS
 10
105.173790
 20
44.242302
 40
0.200000
  1
 20
  0
TEXT
  8
2
  6
CONTINUOUS
 10
106.180333
 20
44.248346
 40
0.200000
  1
    6.3
  0
TEXT
  8
2
  6
CONTINUOUS
 10
108.163790
 20
44.242302
 40
0.200000
  1
  352
  0
TEXT
  8
2
  6
CONTINUOUS
 10
109.373790
 20
44.242302
 40
0.200000
  1
   210
  0
TEXT
  8
2
  6
CONTINUOUS
 10
111.007412
 20
44.242302
 40
0.200000
  1
  73920
  0
TEXT
  8
2
  6
CONTINUOUS
 10
102.933451
 20
43.892303
 40
0.200000
  1
     50A
  0
TEXT
  8
2
  6
CONTINUOUS
 10
105.173790
 20
43.892303
 40
0.200000
  1
 21
  0
TEXT
  8
2
  6
CONTINUOUS
 10
106.180333
 20
43.898346
 40
0.200000
  1
    6.3
  0
TEXT
  8
2
  6
CONTINUOUS
 10
108.163790
 20
43.892303
 40
0.200000
  1
  336
  0
TEXT
  8
2
  6
CONTINUOUS
 10
109.373790
 20
43.892303
 40
0.200000
  1
    90
  0
TEXT
  8
2
  6
CONTINUOUS
 10
111.007412
 20
43.892303
 40
0.200000
  1
  30240
  0
TEXT
  8
2
  6
CONTINUOUS
 10
102.933451
 20
43.542303
 40
0.200000
  1
     50A
  0
TEXT
  8
2
  6
CONTINUOUS
 10
105.173790
 20
43.542303
 40
0.200000
  1
 22
  0
TEXT
  8
2
  6
CONTINUOUS
 10
106.180333
 20
43.548347
 40
0.200000
  1
    8
  0
TEXT
  8
2
  6
CONTINUOUS
 10
108.163790
 20
43.542303
 40
0.200000
  1
  416
  0
TEXT
  8
2
  6
CONTINUOUS
 10
109.373790
 20
43.542303
 40
0.200000
  1
   190
  0
TEXT
  8
2
  6
CONTINUOUS
 10
111.007412
 20
43.542303
 40
0.200000
  1
  79040
  0
TEXT
  8
2
  6
CONTINUOUS
 10
102.933451
 20
43.192303
 40
0.200000
  1
     50A
  0
TEXT
  8
2
  6
CONTINUOUS
 10
105.173790
 20
43.192303
 40
0.200000
  1
 23
  0
TEXT
  8
2
  6
CONTINUOUS
 10
106.180333
 20
43.198347
 40
0.200000
  1
    8
  0
TEXT
  8
2
  6
CONTINUOUS
 10
108.163790
 20
43.192303
 40
0.200000
  1
  688
  0
TEXT
  8
2
  6
CONTINUOUS
 10
109.373790
 20
43.192303
 40
0.200000
  1
   160
  0
TEXT
  8
2
  6
CONTINUOUS
 10
111.007412
 20
43.192303
 40
0.200000
  1
 110080
  0
TEXT
  8
2
  6
CONTINUOUS
 10
102.933451
 20
42.842303
 40
0.200000
  1
     50A
  0
TEXT
  8
2
  6
CONTINUOUS
 10
105.173790
 20
42.842303
 40
0.200000
  1
 24
  0
TEXT
  8
2
  6
CONTINUOUS
 10
106.180333
 20
42.848347
 40
0.200000
  1
    8
  0
TEXT
  8
2
  6
CONTINUOUS
 10
108.163790
 20
42.842303
 40
0.200000
  1
  256
  0
TEXT
  8
2
  6
CONTINUOUS
 10
109.373790
 20
42.842303
 40
0.200000
  1
   240
  0
TEXT
  8
2
  6
CONTINUOUS
 10
111.007412
 20
42.842303
 40
0.200000
  1
  61440
  0
TEXT
  8
2
  6
CONTINUOUS
 10
106.952631
 20
40.989654
 40
0.250000
  1
COMPR
  0
TEXT
  8
2
  6
CONTINUOUS
 10
110.581630
 20
40.989654
 40
0.250000
  1
PESO
  0
TEXT
  8
2
  6
CONTINUOUS
 10
104.987651
 20
40.558553
 40
0.200000
  1
(mm)
  0
TEXT
  8
2
  6
CONTINUOUS
 10
107.129936
 20
40.558553
 40
0.200000
  1
(m)
  0
TEXT
  8
2
  6
CONTINUOUS
 10
110.650232
 20
40.558553
 40
0.200000
  1
(kg)
  0
TEXT
  8
2
  6
CONTINUOUS
 10
104.973790
 20
40.986053
 40
0.250000
  1
BIT
  0
TEXT
  8
2
  6
CONTINUOUS
 10
104.824287
 20
41.423553
 40
0.250000
  1
RESUMO AÇO CA  50-60
  0
TEXT
  8
2
  6
CONTINUOUS
 10
103.363370
 20
40.986053
 40
0.250000
  1
AÇO
  0
TEXT
  8
2
  6
CONTINUOUS
 10
106.711448
 20
40.179803
 40
0.200000
  1
    8162
  0
TEXT
  8
2
  6
CONTINUOUS
 10
110.559055
 20
40.179803
 40
0.200000
  1
   2000
  0
TEXT
  8
2
  6
CONTINUOUS
 10
104.470332
 20
40.185847
 40
0.200000
  1
    6.3
  0
TEXT
  8
2
  6
CONTINUOUS
 10
102.303451
 20
40.179803
 40
0.200000
  1
     50A
  0
TEXT
  8
2
  6
CONTINUOUS
 10
106.711448
 20
39.829803
 40
0.200000
  1
    7634
  0
TEXT
  8
2
  6
CONTINUOUS
 10
110.559055
 20
39.829803
 40
0.200000
  1
   3015
  0
TEXT
  8
2
  6
CONTINUOUS
 10
104.470332
 20
39.835846
 40
0.200000
  1
    8
  0
TEXT
  8
2
  6
CONTINUOUS
 10
102.303451
 20
39.829803
 40
0.200000
  1
     50A
  0
TEXT
  8
2
  6
CONTINUOUS
 10
106.711448
 20
39.479803
 40
0.200000
  1
    2102
  0
TEXT
  8
2
  6
CONTINUOUS
 10
110.559055
 20
39.479803
 40
0.200000
  1
   1297
  0
TEXT
  8
2
  6
CONTINUOUS
 10
104.470332
 20
39.485846
 40
0.200000
  1
   10
  0
TEXT
  8
2
  6
CONTINUOUS
 10
102.303451
 20
39.479802
 40
0.200000
  1
     50A
  0
TEXT
  8
2
  6
CONTINUOUS
 10
106.711448
 20
39.129802
 40
0.200000
  1
    3970
  0
TEXT
  8
2
  6
CONTINUOUS
 10
110.559055
 20
39.129802
 40
0.200000
  1
   3823
  0
TEXT
  8
2
  6
CONTINUOUS
 10
104.470332
 20
39.135846
 40
0.200000
  1
   12.5
  0
TEXT
  8
2
  6
CONTINUOUS
 10
102.303451
 20
39.129802
 40
0.200000
  1
     50A
  0
TEXT
  8
2
  6
CONTINUOUS
 10
101.936619
 20
38.711052
 40
0.250000
  1
Peso Total        50A =
  0
TEXT
  8
2
  6
CONTINUOUS
 10
109.300794
 20
38.711052
 40
0.250000
  1
  10135 kg
  0
ENDSEC
  0
EOF
