  0
SECTION
  2
HEADER
  9
$ACADVER
  1
AC1002
  9
$USERI1
 70
3599
  9
$INSBASE
 10
0.000000
 20
0.000000
  9
$EXTMIN
 10
-0.000072
 20
0.000000
  9
$EXTMAX
 10
118.900002
 20
59.400002
  9
$LIMMIN
 10
0.000000
 20
0.000000
  9
$LIMMAX
 10
12.000000
 20
9.000000
  9
$VIEWCTR
 10
59.449965
 20
29.700001
  9
$VIEWSIZE
 40
118.900074
  9
$TEXTSIZE
 40
0.100000
  9
$TRACEWID
 40
0.010000
  9
$LTSCALE
 40
1.000000
  0
ENDSEC
  0
SECTION
  2
TABLES
  0
TABLE
  2
LTYPE
 70
     3
  0
LTYPE
  2
CONTINUOUS
 70
    64
  3
Solid line
 72
    65
 73
     0
 40
0.000000
  0
LTYPE
  2
ESTILO_TQS_0001
 70
    64
  3
-  -  -  -  -  -
 72
    65
 73
     2
 40
1.000000
 49
0.700000
 49
-0.300000
  0
LTYPE
  2
ESTILO_TQS_0002
 70
    64
  3
. . . . . . . .
 72
    65
 73
     2
 40
0.400000
 49
0.100000
 49
-0.300000
  0
LTYPE
  2
ESTILO_TQS_0003
 70
    64
  3
- . - . - . - .
 72
    65
 73
     4
 40
1.500000
 49
0.500000
 49
-0.400000
 49
0.100000
 49
-0.500000
  0
LTYPE
  2
ESTILO_TQS_0004
 70
    64
  3
- .. - .. - ..
 72
    65
 73
     6
 40
2.000000
 49
0.500000
 49
-0.400000
 49
0.100000
 49
-0.400000
 49
0.100000
 49
-0.500000
  0
LTYPE
  2
ESTILO_TQS_0005
 70
    64
  3
- - - - - - - -
 72
    65
 73
     2
 40
0.400000
 49
0.300000
 49
-0.100000
  0
ENDTAB
  0
TABLE
  2
LAYER
 70
    89
  0
LAYER
  2
0
 70
     0
 62
     7
  6
CONTINUOUS
  0
LAYER
  2
1
 70
     0
 62
     1
  6
CONTINUOUS
  0
LAYER
  2
2
 70
     0
 62
     2
  6
CONTINUOUS
  0
LAYER
  2
3
 70
     0
 62
   254
  6
CONTINUOUS
  0
LAYER
  2
4
 70
     0
 62
     4
  6
CONTINUOUS
  0
LAYER
  2
5
 70
     0
 62
     5
  6
CONTINUOUS
  0
LAYER
  2
6
 70
     0
 62
     6
  6
CONTINUOUS
  0
LAYER
  2
7
 70
     0
 62
     7
  6
CONTINUOUS
  0
LAYER
  2
8
 70
     0
 62
   241
  6
CONTINUOUS
  0
LAYER
  2
9
 70
     0
 62
   254
  6
CONTINUOUS
  0
LAYER
  2
10
 70
     0
 62
   240
  6
CONTINUOUS
  0
LAYER
  2
11
 70
     0
 62
   241
  6
CONTINUOUS
  0
LAYER
  2
12
 70
     0
 62
   242
  6
CONTINUOUS
  0
LAYER
  2
13
 70
     0
 62
   243
  6
CONTINUOUS
  0
LAYER
  2
14
 70
     0
 62
     8
  6
CONTINUOUS
  0
LAYER
  2
15
 70
     0
 62
   245
  6
CONTINUOUS
  0
LAYER
  2
16
 70
     0
 62
     7
  6
CONTINUOUS
  0
LAYER
  2
17
 70
     0
 62
     2
  6
CONTINUOUS
  0
LAYER
  2
18
 70
     0
 62
   241
  6
CONTINUOUS
  0
LAYER
  2
19
 70
     0
 62
   241
  6
CONTINUOUS
  0
LAYER
  2
20
 70
     0
 62
     7
  6
CONTINUOUS
  0
LAYER
  2
21
 70
     0
 62
     2
  6
CONTINUOUS
  0
LAYER
  2
22
 70
     0
 62
     1
  6
CONTINUOUS
  0
LAYER
  2
23
 70
     0
 62
     7
  6
CONTINUOUS
  0
LAYER
  2
24
 70
     0
 62
     6
  6
CONTINUOUS
  0
LAYER
  2
25
 70
     0
 62
     1
  6
CONTINUOUS
  0
LAYER
  2
26
 70
     0
 62
     3
  6
CONTINUOUS
  0
LAYER
  2
27
 70
     0
 62
     4
  6
CONTINUOUS
  0
LAYER
  2
28
 70
     0
 62
     4
  6
CONTINUOUS
  0
LAYER
  2
29
 70
     0
 62
     2
  6
CONTINUOUS
  0
LAYER
  2
30
 70
     0
 62
     4
  6
CONTINUOUS
  0
LAYER
  2
31
 70
     0
 62
     2
  6
CONTINUOUS
  0
LAYER
  2
32
 70
     0
 62
     2
  6
CONTINUOUS
  0
LAYER
  2
33
 70
     0
 62
     2
  6
CONTINUOUS
  0
LAYER
  2
34
 70
     0
 62
     2
  6
CONTINUOUS
  0
LAYER
  2
35
 70
     0
 62
     2
  6
CONTINUOUS
  0
LAYER
  2
36
 70
     0
 62
     2
  6
CONTINUOUS
  0
LAYER
  2
37
 70
     0
 62
     2
  6
CONTINUOUS
  0
LAYER
  2
38
 70
     0
 62
     2
  6
CONTINUOUS
  0
LAYER
  2
39
 70
     0
 62
     2
  6
CONTINUOUS
  0
LAYER
  2
40
 70
     0
 62
     2
  6
CONTINUOUS
  0
LAYER
  2
41
 70
     0
 62
     2
  6
CONTINUOUS
  0
LAYER
  2
42
 70
     0
 62
     2
  6
CONTINUOUS
  0
LAYER
  2
43
 70
     0
 62
     2
  6
CONTINUOUS
  0
LAYER
  2
44
 70
     0
 62
     2
  6
CONTINUOUS
  0
LAYER
  2
45
 70
     0
 62
     2
  6
CONTINUOUS
  0
LAYER
  2
46
 70
     0
 62
     2
  6
CONTINUOUS
  0
LAYER
  2
47
 70
     0
 62
     2
  6
CONTINUOUS
  0
LAYER
  2
48
 70
     0
 62
     2
  6
CONTINUOUS
  0
LAYER
  2
49
 70
     0
 62
     2
  6
CONTINUOUS
  0
LAYER
  2
50
 70
     0
 62
     2
  6
CONTINUOUS
  0
LAYER
  2
51
 70
     0
 62
     2
  6
CONTINUOUS
  0
LAYER
  2
52
 70
     0
 62
     2
  6
CONTINUOUS
  0
LAYER
  2
53
 70
     0
 62
     2
  6
CONTINUOUS
  0
LAYER
  2
54
 70
     0
 62
     2
  6
CONTINUOUS
  0
LAYER
  2
55
 70
     0
 62
     2
  6
CONTINUOUS
  0
LAYER
  2
56
 70
     0
 62
     2
  6
CONTINUOUS
  0
LAYER
  2
57
 70
     0
 62
     2
  6
CONTINUOUS
  0
LAYER
  2
58
 70
     0
 62
     2
  6
CONTINUOUS
  0
LAYER
  2
59
 70
     0
 62
     2
  6
CONTINUOUS
  0
LAYER
  2
60
 70
     0
 62
     2
  6
CONTINUOUS
  0
LAYER
  2
61
 70
     0
 62
     2
  6
CONTINUOUS
  0
LAYER
  2
62
 70
     0
 62
     2
  6
CONTINUOUS
  0
LAYER
  2
63
 70
     0
 62
     2
  6
CONTINUOUS
  0
LAYER
  2
64
 70
     0
 62
     2
  6
CONTINUOUS
  0
LAYER
  2
65
 70
     0
 62
     2
  6
CONTINUOUS
  0
LAYER
  2
66
 70
     0
 62
     2
  6
CONTINUOUS
  0
LAYER
  2
67
 70
     0
 62
     2
  6
CONTINUOUS
  0
LAYER
  2
68
 70
     0
 62
     2
  6
CONTINUOUS
  0
LAYER
  2
69
 70
     0
 62
     2
  6
CONTINUOUS
  0
LAYER
  2
70
 70
     0
 62
     2
  6
CONTINUOUS
  0
LAYER
  2
71
 70
     0
 62
     2
  6
CONTINUOUS
  0
LAYER
  2
72
 70
     0
 62
     2
  6
CONTINUOUS
  0
LAYER
  2
73
 70
     0
 62
     2
  6
CONTINUOUS
  0
LAYER
  2
74
 70
     0
 62
     2
  6
CONTINUOUS
  0
LAYER
  2
75
 70
     0
 62
     2
  6
CONTINUOUS
  0
LAYER
  2
76
 70
     0
 62
     2
  6
CONTINUOUS
  0
LAYER
  2
77
 70
     0
 62
     2
  6
CONTINUOUS
  0
LAYER
  2
78
 70
     0
 62
     2
  6
CONTINUOUS
  0
LAYER
  2
79
 70
     0
 62
     2
  6
CONTINUOUS
  0
LAYER
  2
80
 70
     0
 62
     2
  6
CONTINUOUS
  0
LAYER
  2
81
 70
     0
 62
     2
  6
CONTINUOUS
  0
LAYER
  2
82
 70
     0
 62
     2
  6
CONTINUOUS
  0
LAYER
  2
83
 70
     0
 62
     2
  6
CONTINUOUS
  0
LAYER
  2
84
 70
     0
 62
     2
  6
CONTINUOUS
  0
LAYER
  2
85
 70
     0
 62
     2
  6
CONTINUOUS
  0
LAYER
  2
86
 70
     0
 62
     2
  6
CONTINUOUS
  0
LAYER
  2
87
 70
     0
 62
     2
  6
CONTINUOUS
  0
LAYER
  2
88
 70
     0
 62
     2
  6
CONTINUOUS
  0
LAYER
  2
89
 70
     0
 62
     2
  6
CONTINUOUS
  0
LAYER
  2
90
 70
     0
 62
     2
  6
CONTINUOUS
  0
LAYER
  2
91
 70
     0
 62
     2
  6
CONTINUOUS
  0
LAYER
  2
92
 70
     0
 62
     2
  6
CONTINUOUS
  0
LAYER
  2
93
 70
     0
 62
     2
  6
CONTINUOUS
  0
LAYER
  2
94
 70
     0
 62
     2
  6
CONTINUOUS
  0
LAYER
  2
95
 70
     0
 62
     2
  6
CONTINUOUS
  0
LAYER
  2
96
 70
     0
 62
     2
  6
CONTINUOUS
  0
LAYER
  2
97
 70
     0
 62
     2
  6
CONTINUOUS
  0
LAYER
  2
98
 70
     0
 62
     2
  6
CONTINUOUS
  0
LAYER
  2
99
 70
     0
 62
     2
  6
CONTINUOUS
  0
LAYER
  2
100
 70
     0
 62
     1
  6
CONTINUOUS
  0
LAYER
  2
101
 70
     0
 62
   254
  6
CONTINUOUS
  0
LAYER
  2
102
 70
     0
 62
     7
  6
CONTINUOUS
  0
LAYER
  2
103
 70
     0
 62
     2
  6
CONTINUOUS
  0
LAYER
  2
104
 70
     0
 62
   241
  6
CONTINUOUS
  0
LAYER
  2
105
 70
     0
 62
     3
  6
CONTINUOUS
  0
LAYER
  2
106
 70
     0
 62
     5
  6
CONTINUOUS
  0
LAYER
  2
107
 70
     0
 62
     3
  6
CONTINUOUS
  0
LAYER
  2
108
 70
     0
 62
     5
  6
CONTINUOUS
  0
LAYER
  2
109
 70
     0
 62
     3
  6
CONTINUOUS
  0
LAYER
  2
110
 70
     0
 62
     2
  6
CONTINUOUS
  0
LAYER
  2
111
 70
     0
 62
     1
  6
CONTINUOUS
  0
LAYER
  2
112
 70
     0
 62
     2
  6
CONTINUOUS
  0
LAYER
  2
113
 70
     0
 62
     2
  6
CONTINUOUS
  0
LAYER
  2
114
 70
     0
 62
     2
  6
CONTINUOUS
  0
LAYER
  2
115
 70
     0
 62
     2
  6
CONTINUOUS
  0
LAYER
  2
116
 70
     0
 62
     2
  6
CONTINUOUS
  0
LAYER
  2
117
 70
     0
 62
     2
  6
CONTINUOUS
  0
LAYER
  2
118
 70
     0
 62
     2
  6
CONTINUOUS
  0
LAYER
  2
119
 70
     0
 62
     2
  6
CONTINUOUS
  0
LAYER
  2
120
 70
     0
 62
     2
  6
CONTINUOUS
  0
LAYER
  2
121
 70
     0
 62
     2
  6
CONTINUOUS
  0
LAYER
  2
122
 70
     0
 62
     2
  6
CONTINUOUS
  0
LAYER
  2
123
 70
     0
 62
     2
  6
CONTINUOUS
  0
LAYER
  2
124
 70
     0
 62
     2
  6
CONTINUOUS
  0
LAYER
  2
125
 70
     0
 62
     2
  6
CONTINUOUS
  0
LAYER
  2
126
 70
     0
 62
     2
  6
CONTINUOUS
  0
LAYER
  2
127
 70
     0
 62
     2
  6
CONTINUOUS
  0
LAYER
  2
128
 70
     0
 62
     2
  6
CONTINUOUS
  0
LAYER
  2
129
 70
     0
 62
     2
  6
CONTINUOUS
  0
LAYER
  2
130
 70
     0
 62
     2
  6
CONTINUOUS
  0
LAYER
  2
131
 70
     0
 62
     2
  6
CONTINUOUS
  0
LAYER
  2
132
 70
     0
 62
     2
  6
CONTINUOUS
  0
LAYER
  2
133
 70
     0
 62
     2
  6
CONTINUOUS
  0
LAYER
  2
134
 70
     0
 62
     2
  6
CONTINUOUS
  0
LAYER
  2
135
 70
     0
 62
     2
  6
CONTINUOUS
  0
LAYER
  2
136
 70
     0
 62
     2
  6
CONTINUOUS
  0
LAYER
  2
137
 70
     0
 62
     2
  6
CONTINUOUS
  0
LAYER
  2
138
 70
     0
 62
     2
  6
CONTINUOUS
  0
LAYER
  2
139
 70
     0
 62
     2
  6
CONTINUOUS
  0
LAYER
  2
140
 70
     0
 62
     2
  6
CONTINUOUS
  0
LAYER
  2
141
 70
     0
 62
     2
  6
CONTINUOUS
  0
LAYER
  2
142
 70
     0
 62
     2
  6
CONTINUOUS
  0
LAYER
  2
143
 70
     0
 62
     2
  6
CONTINUOUS
  0
LAYER
  2
144
 70
     0
 62
     2
  6
CONTINUOUS
  0
LAYER
  2
145
 70
     0
 62
     2
  6
CONTINUOUS
  0
LAYER
  2
146
 70
     0
 62
     2
  6
CONTINUOUS
  0
LAYER
  2
147
 70
     0
 62
     2
  6
CONTINUOUS
  0
LAYER
  2
148
 70
     0
 62
     2
  6
CONTINUOUS
  0
LAYER
  2
149
 70
     0
 62
     2
  6
CONTINUOUS
  0
LAYER
  2
150
 70
     0
 62
     2
  6
CONTINUOUS
  0
LAYER
  2
151
 70
     0
 62
     2
  6
CONTINUOUS
  0
LAYER
  2
152
 70
     0
 62
     2
  6
CONTINUOUS
  0
LAYER
  2
153
 70
     0
 62
     2
  6
CONTINUOUS
  0
LAYER
  2
154
 70
     0
 62
     2
  6
CONTINUOUS
  0
LAYER
  2
155
 70
     0
 62
     2
  6
CONTINUOUS
  0
LAYER
  2
156
 70
     0
 62
     2
  6
CONTINUOUS
  0
LAYER
  2
157
 70
     0
 62
     2
  6
CONTINUOUS
  0
LAYER
  2
158
 70
     0
 62
     2
  6
CONTINUOUS
  0
LAYER
  2
159
 70
     0
 62
     2
  6
CONTINUOUS
  0
LAYER
  2
160
 70
     0
 62
     2
  6
CONTINUOUS
  0
LAYER
  2
161
 70
     0
 62
     7
  6
CONTINUOUS
  0
LAYER
  2
162
 70
     0
 62
     2
  6
CONTINUOUS
  0
LAYER
  2
163
 70
     0
 62
     2
  6
CONTINUOUS
  0
LAYER
  2
164
 70
     0
 62
     2
  6
CONTINUOUS
  0
LAYER
  2
165
 70
     0
 62
     2
  6
CONTINUOUS
  0
LAYER
  2
166
 70
     0
 62
     2
  6
CONTINUOUS
  0
LAYER
  2
167
 70
     0
 62
     4
  6
CONTINUOUS
  0
LAYER
  2
168
 70
     0
 62
     2
  6
CONTINUOUS
  0
LAYER
  2
169
 70
     0
 62
     3
  6
CONTINUOUS
  0
LAYER
  2
170
 70
     0
 62
     2
  6
CONTINUOUS
  0
LAYER
  2
171
 70
     0
 62
     2
  6
CONTINUOUS
  0
LAYER
  2
172
 70
     0
 62
     2
  6
CONTINUOUS
  0
LAYER
  2
173
 70
     0
 62
     2
  6
CONTINUOUS
  0
LAYER
  2
174
 70
     0
 62
     2
  6
CONTINUOUS
  0
LAYER
  2
175
 70
     0
 62
     2
  6
CONTINUOUS
  0
LAYER
  2
176
 70
     0
 62
     2
  6
CONTINUOUS
  0
LAYER
  2
177
 70
     0
 62
     2
  6
CONTINUOUS
  0
LAYER
  2
178
 70
     0
 62
     2
  6
CONTINUOUS
  0
LAYER
  2
179
 70
     0
 62
     2
  6
CONTINUOUS
  0
LAYER
  2
180
 70
     0
 62
     2
  6
CONTINUOUS
  0
LAYER
  2
181
 70
     0
 62
     2
  6
CONTINUOUS
  0
LAYER
  2
182
 70
     0
 62
     2
  6
CONTINUOUS
  0
LAYER
  2
183
 70
     0
 62
     2
  6
CONTINUOUS
  0
LAYER
  2
184
 70
     0
 62
     2
  6
CONTINUOUS
  0
LAYER
  2
185
 70
     0
 62
     2
  6
CONTINUOUS
  0
LAYER
  2
186
 70
     0
 62
     2
  6
CONTINUOUS
  0
LAYER
  2
187
 70
     0
 62
     2
  6
CONTINUOUS
  0
LAYER
  2
188
 70
     0
 62
     2
  6
CONTINUOUS
  0
LAYER
  2
189
 70
     0
 62
     2
  6
CONTINUOUS
  0
LAYER
  2
190
 70
     0
 62
     2
  6
CONTINUOUS
  0
LAYER
  2
191
 70
     0
 62
     2
  6
CONTINUOUS
  0
LAYER
  2
192
 70
     0
 62
     2
  6
CONTINUOUS
  0
LAYER
  2
193
 70
     0
 62
     2
  6
CONTINUOUS
  0
LAYER
  2
194
 70
     0
 62
     2
  6
CONTINUOUS
  0
LAYER
  2
195
 70
     0
 62
     2
  6
CONTINUOUS
  0
LAYER
  2
196
 70
     0
 62
     2
  6
CONTINUOUS
  0
LAYER
  2
197
 70
     0
 62
     3
  6
CONTINUOUS
  0
LAYER
  2
198
 70
     0
 62
     2
  6
CONTINUOUS
  0
LAYER
  2
199
 70
     0
 62
     6
  6
CONTINUOUS
  0
LAYER
  2
200
 70
     0
 62
     7
  6
ESTILO_TQS_0002
  0
LAYER
  2
201
 70
     0
 62
     7
  6
ESTILO_TQS_0001
  0
LAYER
  2
202
 70
     0
 62
     7
  6
CONTINUOUS
  0
LAYER
  2
203
 70
     0
 62
     7
  6
ESTILO_TQS_0001
  0
LAYER
  2
204
 70
     0
 62
     7
  6
ESTILO_TQS_0003
  0
LAYER
  2
205
 70
     0
 62
     5
  6
ESTILO_TQS_0004
  0
LAYER
  2
206
 70
     0
 62
   245
  6
CONTINUOUS
  0
LAYER
  2
207
 70
     0
 62
     2
  6
CONTINUOUS
  0
LAYER
  2
208
 70
     0
 62
     5
  6
CONTINUOUS
  0
LAYER
  2
209
 70
     0
 62
    -3
  6
CONTINUOUS
  0
LAYER
  2
210
 70
     0
 62
   245
  6
ESTILO_TQS_0002
  0
LAYER
  2
211
 70
     0
 62
     7
  6
ESTILO_TQS_0001
  0
LAYER
  2
212
 70
     0
 62
     7
  6
CONTINUOUS
  0
LAYER
  2
213
 70
     0
 62
     1
  6
CONTINUOUS
  0
LAYER
  2
214
 70
     0
 62
   245
  6
CONTINUOUS
  0
LAYER
  2
215
 70
     0
 62
     2
  6
CONTINUOUS
  0
LAYER
  2
216
 70
     0
 62
     3
  6
CONTINUOUS
  0
LAYER
  2
217
 70
     0
 62
     3
  6
CONTINUOUS
  0
LAYER
  2
218
 70
     0
 62
     2
  6
CONTINUOUS
  0
LAYER
  2
219
 70
     0
 62
   245
  6
CONTINUOUS
  0
LAYER
  2
220
 70
     0
 62
   240
  6
CONTINUOUS
  0
LAYER
  2
221
 70
     0
 62
   241
  6
CONTINUOUS
  0
LAYER
  2
222
 70
     0
 62
   242
  6
CONTINUOUS
  0
LAYER
  2
223
 70
     0
 62
     6
  6
CONTINUOUS
  0
LAYER
  2
224
 70
     0
 62
     1
  6
CONTINUOUS
  0
LAYER
  2
225
 70
     0
 62
   245
  6
CONTINUOUS
  0
LAYER
  2
226
 70
     0
 62
     2
  6
CONTINUOUS
  0
LAYER
  2
227
 70
     0
 62
   240
  6
CONTINUOUS
  0
LAYER
  2
228
 70
     0
 62
   241
  6
CONTINUOUS
  0
LAYER
  2
229
 70
     0
 62
   242
  6
CONTINUOUS
  0
LAYER
  2
230
 70
     0
 62
     6
  6
CONTINUOUS
  0
LAYER
  2
231
 70
     0
 62
     3
  6
CONTINUOUS
  0
LAYER
  2
232
 70
     0
 62
   242
  6
CONTINUOUS
  0
LAYER
  2
233
 70
     0
 62
     4
  6
CONTINUOUS
  0
LAYER
  2
234
 70
     0
 62
   243
  6
CONTINUOUS
  0
LAYER
  2
235
 70
     0
 62
     5
  6
CONTINUOUS
  0
LAYER
  2
236
 70
     0
 62
     2
  6
CONTINUOUS
  0
LAYER
  2
237
 70
     0
 62
     6
  6
CONTINUOUS
  0
LAYER
  2
238
 70
     0
 62
   242
  6
CONTINUOUS
  0
LAYER
  2
239
 70
     0
 62
   241
  6
CONTINUOUS
  0
LAYER
  2
240
 70
     0
 62
   241
  6
CONTINUOUS
  0
LAYER
  2
241
 70
     0
 62
   242
  6
CONTINUOUS
  0
LAYER
  2
242
 70
     0
 62
     4
  6
CONTINUOUS
  0
LAYER
  2
243
 70
     0
 62
     2
  6
CONTINUOUS
  0
LAYER
  2
244
 70
     0
 62
   240
  6
CONTINUOUS
  0
LAYER
  2
245
 70
     0
 62
   240
  6
CONTINUOUS
  0
LAYER
  2
246
 70
     0
 62
   244
  6
CONTINUOUS
  0
LAYER
  2
247
 70
     0
 62
     7
  6
CONTINUOUS
  0
LAYER
  2
248
 70
     0
 62
     7
  6
CONTINUOUS
  0
LAYER
  2
249
 70
     0
 62
     3
  6
CONTINUOUS
  0
LAYER
  2
250
 70
     0
 62
     7
  6
CONTINUOUS
  0
LAYER
  2
251
 70
     0
 62
     1
  6
CONTINUOUS
  0
LAYER
  2
252
 70
     0
 62
     1
  6
CONTINUOUS
  0
LAYER
  2
253
 70
     0
 62
    -4
  6
CONTINUOUS
  0
LAYER
  2
254
 70
     0
 62
  -240
  6
CONTINUOUS
  0
LAYER
  2
255
 70
     0
 62
  -244
  6
CONTINUOUS
  0
ENDTAB
  0
TABLE
  2
STYLE
 70
     1
  0
STYLE
  2
STANDARD
 70
    64
 40
0.000000
 41
1.000000
 50
0.000000
 71
     0
 42
0.200000
  3
ROMANS.SHX
  4

  0
ENDTAB
  0
TABLE
  2
VIEW
 70
     0
  0
ENDTAB
  0
ENDSEC
  0
SECTION
  2
BLOCKS
  0
BLOCK
  8
0
  2
_POINT
 70
    64
 10
0.000000
 20
0.000000
  0
LINE
  8
0
 10
0.000000
 20
-0.100000
 11
0.000000
 21
0.100000
  0
ENDBLK
  8
0
  0
BLOCK
  8
0
  2
ACAD0001
 70
    64
 10
0.000000
 20
0.000000
  0
ENDBLK
  8
0
  0
BLOCK
  8
0
  2
ACAD0002
 70
    64
 10
0.000000
 20
0.000000
  0
ENDBLK
  8
0
  0
BLOCK
  8
0
  2
_PLWTQS
 70
    64
 10
0.000000
 20
0.000000
  0
TEXT
  8
0
  6
CONTINUOUS
 10
0.000000
 20
0.000000
 40
0.200000
  1
$PLWDWGGlBMVwAAAAAAAChAAwAAACQI4KvVOkTdqjahDF9EGoXHM5RQFoWXDm/z+DLvDOqfkb2q62EIvVbcCdlnzeu3Pmc93cZXhP6eF9gX3gfO5qsIyyhIDs8PJt5lAvCGvyK8gHsCI9KcDTNBnyNblepcK7YXPiAxam3IdsGjqdwHeEY=
  0
TEXT
  8
0
  6
CONTINUOUS
 10
0.000000
 20
-0.250000
 40
0.200000
  1
$PLWDWG7RsyUn12RKY65oPGpRjca13r/mEnl4QHvwMl0cIvVXluh0xYH8A2ZScWD63eeNTKRzK4g1nWpqxDXTlSwmwQkHilMTyV0auUnsYy9Jy+rNo6rsLQSGhL3TxgKI6QaqwWwRA800t6Qm3BnukOc+dLiFy5zahntqDWR9esNoAnU3A=
  0
TEXT
  8
0
  6
CONTINUOUS
 10
0.000000
 20
-0.500000
 40
0.200000
  1
$PLWDWGzhHyXjtqk5Hm/Xim/H4nI9Gyh09wshX0XqwXCv8AUzk9hvu5MXyVZhEk6OXU17rKwcK6uc1iHKcgz5NVxu22ukfzQdr2H1TckDSiejIEQUFohvc38fiD3xRRfH1W9ViHnakN8S50/oJ3cj5pBqT0DeebSi50oPvxf/tTpn4KJt0=
  0
TEXT
  8
0
  6
CONTINUOUS
 10
0.000000
 20
-0.750000
 40
0.200000
  1
$PLWDWGgQ+GacTd0pY2dnLJHL6znZI2q/o0VKaGSHuh2wYm+55PeonIZte+3RzLaalw/vNVGdJEMQL5nJSVg50h+G3y40dfakFbwUv915l3SeME3Zr0hrfEWEILd3K92p0C+5ItoUDEUsq3xJiF3hYJXnC3xMvo/ThTOXX2OVW3rihaU7o=
  0
TEXT
  8
0
  6
CONTINUOUS
 10
0.000000
 20
-1.000000
 40
0.200000
  1
$PLWDWGz9mSQQp0y4B58NTz0RYUH5P3O40Uu+tx9qF0JzJdihahPwdb2GUDzCyYZYOtwhxGVQHR5YGAy2ETdJVvHpdSjOjoohv8ncuTVNjNUz3a8n5c+bLTMniBmY6VyP2dsPD7e+bQv8LPsvDqw4wEfs4lGniaOUjgrn1fSWDFQ6anMo8=
  0
TEXT
  8
0
  6
CONTINUOUS
 10
0.000000
 20
-1.250000
 40
0.200000
  1
$PLWDWGRyhmbEKdxi4DiUvVa+FC8ek8npcRI10uMDYGbfGLu2bHp8COKnbPpTlGJu/DvOzQQHTIHxUQFkNE7kFO21DphPFqMoHr5JU46ps2PazMrVY8ES8gVR5pRjf/jufzmfpzXvWx6hUNz7qTKdRRx8lhETnNqoPDillH8gw4b/y11KA=
  0
TEXT
  8
0
  6
CONTINUOUS
 10
0.000000
 20
-1.500000
 40
0.200000
  1
$PLWDWGP/kauY735s03Gmv/yFuhTWgScze+HfnY/z9EQ/PnwOH2FChh3sYE5m2kstWJ0q8mivCv+OFJDxurhcsayBLFqcLBY1onMWKo1wmQ0JsWUjM/ZEDKEoWlPjkDJ6toyq7V8TkCarsqH+1wh+Lnp2j+hOvWb0ZabymA81Ekr5/zpMk=
  0
TEXT
  8
0
  6
CONTINUOUS
 10
0.000000
 20
-1.750000
 40
0.200000
  1
$PLWDWGvY28qOZdDuLbeDgm3l8BNzUbisuX4EeLfGtQ5hF/EzkAsDEWH0dKhfeov+fOE0ELV33wHsKBqAPlvqyWeqQZ8Extr3l1cXZ9I7qvicvUvAFx/Tqa6VnYJ485F34ZkCqer/bms898ThGI2/VMdtsPH4bnJ5M7sUTGBgrOu/S22vc=
  0
TEXT
  8
0
  6
CONTINUOUS
 10
0.000000
 20
-2.000000
 40
0.200000
  1
$PLWDWG7BVt4V7H/J5iYKA3G7ss5F1zh2ISbwi97avgikXejNRdfL9qYv9KKPLxCWxfLH4N4UZuCqBiVyF+JlcJitMsR2WeNs8695+CEwueLUGX9nThRbeePzus5j0dUafwmM5RSWi59MGFLBZJiLAhd9D54CPqANz/pxau2tZr81Awo7Q=
  0
TEXT
  8
0
  6
CONTINUOUS
 10
0.000000
 20
-2.250000
 40
0.200000
  1
$PLWDWGYrbOax08eH2caeqtlZz6SmX/edi1IeyHtACGF/3P5QI+HomGrRWwAUtwy3D9ffwi+eYXo2jMCg8m1TeEIz6tzX/wET5WsKhKjyheIRL7Y/izHvS6VQJgujGKQT9JaUIf7GRXAtcm+1IAxOoEMh6Xjp2MxsGDZ8+sRwMpSivQ3Fo=
  0
TEXT
  8
0
  6
CONTINUOUS
 10
0.000000
 20
-2.500000
 40
0.200000
  1
$PLWDWG0Eg6fYE07HpNNJJ7wvO6aruBtlkOyZpnAMNZ59lKCfP/wtVBu+0ZlqHpDZU3C1V2jeirL9jFEy/l2G06vE/HLr9pTdQarzR3/k4liPg+Wb4lVQSy8/e6LVBzqhE5/Jcgtl+phfFXhShWKF89CCrSywauYnvn6X47W2VQ1CIfrNQ=
  0
TEXT
  8
0
  6
CONTINUOUS
 10
0.000000
 20
-2.750000
 40
0.200000
  1
$PLWDWGWvtRuWMlb8dRaVU42ryGABaVJdGxXSBeshW+2dHAxn6KYrjHd434+28eRIN1bCU5X3WG0VDEi9sa8/SJzSf1HtcG/Il7YsMGwicv8bN3zuLUSRrSca/WVA1xjQVXVsWIMw7IYUsnwu5nkhUR3T3jr6rKwqb2CfZFYpLmN1ufTpQ=
  0
TEXT
  8
0
  6
CONTINUOUS
 10
0.000000
 20
-3.000000
 40
0.200000
  1
$PLWDWGa2gM7Eqnre3U5rSn6Jlhx25hdDvQbmDQRJl3Yi/1jIRj/3hroRJKuhJjUGTKUiFg7+SPvenXs+SlUs+D9XzOZo3dBgOpnj8Dd2qtTbWBazH5pYTZXxQCKXJ5dVmbSy6mo3UW5hQdwAH9HjfIy/ddJrh68CNRsmkCo4aBTN4VVbo=
  0
TEXT
  8
0
  6
CONTINUOUS
 10
0.000000
 20
-3.250000
 40
0.200000
  1
$PLWDWGXfWlCodzYfJNUkI/fHzA9ohIwcq9HTYIc0emmMzxG9EjFNZxcp5EusrXvSrmjFUAxrlV4sPyNHai5KepUiBiLXJ30+dNMO8xSPs4goRgZq2OjvYFPodlakRUG/7xiX+QCANYqZ5JluvgAcd39qQP6tV5Bt9ffd1zKSyqsFWHiSQ=
  0
TEXT
  8
0
  6
CONTINUOUS
 10
0.000000
 20
-3.500000
 40
0.200000
  1
$PLWDWGVw93FsXF7dBu832QGhIN9jxMgJv1+cGDBcEQPFE17w3WZQWjLP7359yClqBmghNGXP11KfODsbnKnKURH5PdOiHXlA9jiwzwlmVp0hSbYYfWdfC4i/30GU1W2XHSa53RsIpLdTW14uV8k5HPJ+EmzS94F5tr85Z9q6t9RVhdzGM=
  0
TEXT
  8
0
  6
CONTINUOUS
 10
0.000000
 20
-3.750000
 40
0.200000
  1
$PLWDWGL8/gnCDFzzDt1svINKtRm9r7Dc1pEEzjrCtboNwO91sV5Tc4OVN7WPAmnS4mmWy0tVrQE89OBU+ddwXXb0ZHQAlsQe30qiz+0qLV10VGR0BLBAsJV1MkT6N/WQ3MBpyo2E+hUzPvipdRtEzjFC8rHqVePMZgwn5YVjpQ8iOjMKQ=
  0
TEXT
  8
0
  6
CONTINUOUS
 10
0.000000
 20
-4.000000
 40
0.200000
  1
$PLWDWGNdsovQdjxW9zC/W7YeyYloONJZ0M8B9VT+SG/8mAClDElXS1iae74K3aEvSnHw5fFL3onT5CxflPtHVQ1ynCztinYzwnHEvjpiyXVuzSfgOwofYVKHUBTSkj8QCcSAPMaIb07LigvNEc3nGpMrA16s0edkNzALBN7VLZn53+mZ8=
  0
TEXT
  8
0
  6
CONTINUOUS
 10
0.000000
 20
-4.250000
 40
0.200000
  1
$PLWDWGsjXF68+AOQ9KCSsFvidBP5grcEMaLGIL+ke3+0yhasGKmBXpaJpglujqpmgG1Yg6RNpRmFJ/mFnplDEc+C0HarBN4hSG7oSHOQHSwACpDda2Rrrpe2ZtsDR3fIDgS99Vazs43pkRJPVsvhI+j20K5g31Ix7PC1PlZ6U0jF/ZIRw=
  0
TEXT
  8
0
  6
CONTINUOUS
 10
0.000000
 20
-4.500000
 40
0.200000
  1
$PLWDWGH/SFRmWO4sKXLNQI/il4vrM75+rFsJhRQOYY0AR6Sdd2dPdSzNHMc70OTdGd4GlD1bSqf0zQpwMnY9peX5uylthor8iEZJybgg5Ui+Vcsvm0cleRKD2Q7rFTZGw+N1WblEy7uqsBwQtVPS5ZzbJfvGhpkwBvK2aLzEuW/7lN8X0=
  0
TEXT
  8
0
  6
CONTINUOUS
 10
0.000000
 20
-4.750000
 40
0.200000
  1
$PLWDWG/JZww9TEAP3qhxk+f2zo56QySX4N+9p/mLKmS9mRd7vZSXKszOPt97OWyocVnUYEdnzmXu7jNznPsNUnqLRqarVbZXJD6NWlQwyQ12D2IuZ4RG9pEXyIXrxpaap6si3RyfzvtnRTL2ahMK6bapAuoslR4+V8G6/M+Knl0vaWRQw=
  0
TEXT
  8
0
  6
CONTINUOUS
 10
0.000000
 20
-5.000000
 40
0.200000
  1
$PLWDWGe/6HkAygHWJiPirireS7YpguuAKfCWCaWkDD54AHcc0vG4/L3byutsxtwsoHUz8WiStoDR8eejuGg1j3/vrakllsIAsQRRR+BeDe16l8eMoz2vq9G8PRZ366QGDgpf8aKWJhd+ekBglZERMXXDHoPuaquADodqVUTGiaZTOEasI=
  0
TEXT
  8
0
  6
CONTINUOUS
 10
0.000000
 20
-5.250000
 40
0.200000
  1
$PLWDWGofBhH2no2YUIFRwYNfql2AfdM7qQddVk2KERMM0M+ngDG5I2xvDCwCYWk49Q4IlprulsM//chXVqwai9R+LPffVHsrNG8rqgoc+36Lb9Gl+LgmcefIMkREN8XlKDqypR5tGCweKcY82O2dncHYMAxcMaD5kX8eKyEFf9UFO8NTU=
  0
TEXT
  8
0
  6
CONTINUOUS
 10
0.000000
 20
-5.500000
 40
0.200000
  1
$PLWDWGlfACJN+Kt3kcuN44zXKnmKqLbee6dya6jqntYNJw7Vgzbn2/KAz80qVuYo8+05gA+4eUB97OpHL3OAnOvvSIgWzAuLRK6idP+tEm9QGQWdRbI/bLgtGIfvl1FazEsbf0hcnD3Mj1jW+6JD47yDaGVc7kgYC7c2mpj9a2LgrYWfI=
  0
TEXT
  8
0
  6
CONTINUOUS
 10
0.000000
 20
-5.750000
 40
0.200000
  1
$PLWDWGBIFNVuQY2iwkuvGbATr1VTwwh5qcqa2Hgze+jydvl0c9oi5RH8oRCmvwNeXX4A62+KgRZsp714yt/HYa/BIJCFZCDnWeH2B06DxL05pqNzvgQ1f8KVCLJqeExHDQyUVAtntH6hgl40fr+rYRt8tFQCHhbmUcNdbXb8toAGHIE+A=
  0
TEXT
  8
0
  6
CONTINUOUS
 10
0.000000
 20
-6.000000
 40
0.200000
  1
$PLWDWGBRdR0Yw1KmiuZkXg1i0+TkX3TJvoB8ck5OgMMAv6VEPkwJfZsa7eHEG0A4mbDEWTUVTHr86j8QrIkAqe63uKRa7vUGtjzaJTRSopsa3yY1wyFXRk5bD7+2D7yfPWV96Kqg7nuJOkUejSCxXykGm9Eii6nz0DvxMImmR2cZ/VTA8=
  0
TEXT
  8
0
  6
CONTINUOUS
 10
0.000000
 20
-6.250000
 40
0.200000
  1
$PLWDWG4g8Mj3m4OtIriuhBbdrNkhlmabofUDSac4YftZCsYsGCbbaI+c3+k6lBPHPw7zEi7eN/szhefpLcvSmClHAJmwGXH7C+hFocA+ExDxyzXpBChoORNHbi7PphIwbf04d27asGF04byYhzyRQ1f7qVFOzNJqZaUn08izqO+xbohKM=
  0
TEXT
  8
0
  6
CONTINUOUS
 10
0.000000
 20
-6.500000
 40
0.200000
  1
$PLWDWGjhUbGOl/B9YF8OSNgqHLGbagxEHzNtg4yF1pax1e2rVkigLtNerrhasfRRs53dFF75aQc45NXN2GDxki+vT8RL/Xvn5uGsEsUqfD5a7RkmPO0G7zkt+9/DPD4dTaOwvTBrUvaLmTAe0O4KwDZygk4W0a8v/KmSfgcnZiRJjaSoA=
  0
TEXT
  8
0
  6
CONTINUOUS
 10
0.000000
 20
-6.750000
 40
0.200000
  1
$PLWDWGtnxFfYrVHfu9eQ6VjM2ZteZmQRmrViLZA+yJSTfDtTFUJZUbpBImODs7aTie92B7hPE75hL45xj7WJfrHO5SCWQLstucbyCE1v9jcIUWO1lMP45qUjCA47JdvN2iXIGD14/N/+J16VNACLer2c7w1xiwP2cU1gGmXKm5Eq1kF9g=
  0
TEXT
  8
0
  6
CONTINUOUS
 10
0.000000
 20
-7.000000
 40
0.200000
  1
$PLWDWGu5WJmdpuxpgosEDrQvv4QVlNvJVIQJ/pGS4nHojsoSpmejoclH4sYBZ2bH9hLt4IzRixC/AfrTvQkJNKKTkfzOxykOOu7M8JzN4FOEA6I870tJkgyX4mCNL0mEJgZfxW5zA4qEDBKckrcXJrg03pHGRd78n+fR2KBKKT02Y8SYc=
  0
TEXT
  8
0
  6
CONTINUOUS
 10
0.000000
 20
-7.250000
 40
0.200000
  1
$PLWDWGdOypiWIPZpocGHpIcSuqrTqHXZiI4UBhUm1fUgZDtLeBHqFTQximGVYMG/ypOI48z/G/0xtzcEealJQbwfsqKJsxyHmZhAa3rpfK33ektd4wMfMzdQ0BT3Fca5F+oJ2Wv9mo/8GaBAYxIKO2SO0CPhj/yr+qquE8qNXVGYtU+Fw=
  0
TEXT
  8
0
  6
CONTINUOUS
 10
0.000000
 20
-7.500000
 40
0.200000
  1
$PLWDWGqT9F2Ier+oIEIOWrUUo2X0AftyE7JMxn6a9e2SUAQaMq2YOGSXxiK33his5ObDwWeyHCkRm6vrLIFPBx6R2xhLTgJ0ujpoehl7yBNu5Fml0gxW69l+S9mRaABGGrj3Ajtgd+VAoXI/OaSfm2xXCaE1sdIoYFsfxVXlc/e1DPT7k=
  0
TEXT
  8
0
  6
CONTINUOUS
 10
0.000000
 20
-7.750000
 40
0.200000
  1
$PLWDWG1yjfVBa8FuZ0R7/7jR50N9maJvtCXz9tA/rUd3tCVqJwwYpiO40d7N0r1H9PjNJ29iR/1LcoXgHe8vccbZJ0QirgCsX/95NLe99oLHle0vlLWtRnjElODbFImjnBorks6ks9tZXWbA29cNSh5gQQYDDI2xIddjpeC/7UBiJnRkA=
  0
TEXT
  8
0
  6
CONTINUOUS
 10
0.000000
 20
-8.000000
 40
0.200000
  1
$PLWDWGj1oeV4UTSbR9XUOrTHEpQKG+LS42KrqqiPUvYkqAKUDvbdSNJoAgMuMjW3MPhkRAHhovNHUszX/DNzhV9mdGQIBKTXqsndSaRiz4q6OHREBYyKuSbqeXGOKnDACDLWVswjgo61Gq/hsBE3FLnHlVTfeHDyuP6cPAIZP3USluIpk=
  0
TEXT
  8
0
  6
CONTINUOUS
 10
0.000000
 20
-8.250000
 40
0.200000
  1
$PLWDWGWeHuamNPKbOYJwV40onetapKsc/07R1PLeJiv++VlRXXL7YnkjwqGluSyUZXUzpwDZ5M6uYozUA0lVeMTO1Bdh8w3JcFh+1fBAz/aF8tJLkv9CyS4ZkXgVLHgMkhhiXOIJoh16J3PKaw6G+2sRp9htd23ZNJr6yZN/bUu7ZgG/k=
  0
TEXT
  8
0
  6
CONTINUOUS
 10
0.000000
 20
-8.500000
 40
0.200000
  1
$PLWDWGVAr6VaQuVS5XmDOdmg+9oHxo+f9khTX253nlj9M+RhDW5XB2/4gP1p7zKdflkeWmWUUypYs33yzULZA3wn3sSAFuMpfVzhzKLmYhQRtjC2bgi6SeZk9/36k/gTHialqLrk5Nzj4mEGvwFR5WzgcBQRr6/C/cSUgAhQdQbiR4pmc=
  0
TEXT
  8
0
  6
CONTINUOUS
 10
0.000000
 20
-8.750000
 40
0.200000
  1
$PLWDWGTOw4GbAaU6uVMni+Vv2j7w8D/vOdhvyfBTQOqyxRW4aSl3UFb9+W0NB6INDxoG05eL+fXnMKOE/52J9R+3y23Y7QWUI3u0Gi2KDg9RC4T4KxwQDvMgJjZ5MO9xJDZXculICU+SU5S+nu+fLuuQnOiNMOsD6uj7gIh8JvkyUg5DY=
  0
TEXT
  8
0
  6
CONTINUOUS
 10
0.000000
 20
-9.000000
 40
0.200000
  1
$PLWDWGZjUtYRmMbMOrC3pVqZ0zuyb2UbHi40iuOanmA4QbARr3ctyiLlgwYmS8SFd8lBQofcfS9HhX0IVAcpnddBecOiSaScPvKLTY/QD2qW/nYmGLsN1IqV4XfXRQnHxvfDkMR/CiBkcnzZc9D4LfQHqkXjCNLAcuJHos3mCbEGiTF/c=
  0
TEXT
  8
0
  6
CONTINUOUS
 10
0.000000
 20
-9.250000
 40
0.200000
  1
$PLWDWGMkY9+ln2bEOd0PX7HMHiUL9TeHZ4eBt70Q6Vz2N1R/5Ik9KsUCNwxU6OFsK65ot4W0z+J7o13fuMUR+Dg6GMF/hUwp9H2x3bC5O2xFg6x2E4DeXIiMWRgXDzC/kwAgh4Ci0bGMXcWOgxBqTD5Am5M8TXQJWdKkjWUf5yV2wrUVs=
  0
TEXT
  8
0
  6
CONTINUOUS
 10
0.000000
 20
-9.500000
 40
0.200000
  1
$PLWDWGl8BDrDBnxE4g6s9JEl0FmWbHCbtEn/vLk9nCf6CvuKah8Q3WK1ENDPsUUI5BM8JsrhfQIJ2E4k8BEaV5s4mAAwBVsue5Fpi2mfxxArNWjlWy0FBuFLnZ3b/Uk3FZPNlotivxN6BSyPSKK8D0MIoTin0fkrEXIbaYkj0NSHjc4J4=
  0
TEXT
  8
0
  6
CONTINUOUS
 10
0.000000
 20
-9.750000
 40
0.200000
  1
$PLWDWG9ffU8vZeCp8J3p/rbHWoXz0GTCNed0W+egYOpGwANFUrMMMTrjGLdPVOAj+G8gMfCnaiPJc9QTLlsxFiOBrMgX943f6Ffjib7suIQ9O2kB84tvX7FospU4EiDyODvukmm6cskxlvARV8DXaZkS2WOF3q5x7kXa7tqM31IVrBMQM=
  0
TEXT
  8
0
  6
CONTINUOUS
 10
0.000000
 20
-10.000000
 40
0.200000
  1
$PLWDWGEhW2kvSSzHobnlTc2KiOhx2Clj1wZwUNh8Fz0gkiE5XOu0koRzTbdVYBuSOnyrSDj+XT74zVmPPUNpqoqp68iPaWZ5tNZvwxDlBRbMuHKvt6xNFQpt12CIua+C1MdkRAfjBNwtU+mvL/x6tebm1EQAPqe40Zi+xuyTkxKIzAlXE=
  0
TEXT
  8
0
  6
CONTINUOUS
 10
0.000000
 20
-10.250000
 40
0.200000
  1
$PLWDWGVLtzhKt0w19NvzvPFQ/tmdk0S8RNuYtgDcZiB7XGT9eV7ttDOlpYXWtiXLZyByAuHouBntxyE38lWN/4bz3+1e9hylJM+j3L4IMLw5U+7il8FFxYvSLJm7YC9nmvBwbAbxcdpP+9UiVxgp+AisSVZh7N+9OJSVHSVAWhwiQ18pc=
  0
TEXT
  8
0
  6
CONTINUOUS
 10
0.000000
 20
-10.500000
 40
0.200000
  1
$PLWDWGQ7rdryhb70SYwRgZEjfxpv+vEEuP9m88p1uSSwjCETeQhZxkIKaLHZTmE1cQDvRw9b9fHYTyIpEpSrPZ09Z3MrXfPgf90XEPGW/F4vXZ2BCQf1mepCGbrOkRmz+r/7tcb0dgDM4U+5z5aX2PtMD+0v9u4fZDUoRGX+3ZN3HZseo=
  0
TEXT
  8
0
  6
CONTINUOUS
 10
0.000000
 20
-10.750000
 40
0.200000
  1
$PLWDWGwO31UJyCWIVBMxS0QxX/h6BO8MXR144oMD6Jp0xnSH201lnBJwoerb4IFbQW0CS9SjJ+2AZmlKkMyCJjGdsoMjLaw1tCiUZhsVkvl6n4EKCHyYrpMI03QBpIZBa1oxFCFi8MJGrVl3rJZGAxoociq5/0J7OrXB1NuR22gO8chgg=
  0
TEXT
  8
0
  6
CONTINUOUS
 10
0.000000
 20
-11.000000
 40
0.200000
  1
$PLWDWGPLsRWZqUHo2FmIAqvc8sds5rsbVRsijzwvp0eP+ZWQf7kL2xciQn7Xjt5ts7icA6um8b+zpnPJ4tIkfHuwq9QFc4TU5bOgIeYBl5VliCmFR37TSdM+A9r0KsQKxV85LrBInvrDAFInWC01lqhkBQvbheJcbIuh0wnVdCKi42F+M=
  0
TEXT
  8
0
  6
CONTINUOUS
 10
0.000000
 20
-11.250000
 40
0.200000
  1
$PLWDWGQdbm4nzvuiPDL09t91EGBXtyR93KpL+Xy80QVeTigVoNNypGlpBaAu//I48YpCFoW3I/5fsRKQ+RVDNs9o2SAdDy26yXb7tSvytIb935F1YhFVKaUUNXJNCEIonZugInPEID841U32ht2ruQeJDTez6Crt7UfDvylTVYHCNjHmI=
  0
TEXT
  8
0
  6
CONTINUOUS
 10
0.000000
 20
-11.500000
 40
0.200000
  1
$PLWDWGRFvKIUMKTTbWkip9KOoXxtkqP0c2JYWR22kkt6yVPwpL90rIiA3gWXRr4qG/xj8r080X3s4mDzIFBkovnTGrc4vcbzUy97ZK2Wc/aq8efxpHSgaWLej9cDCSUKY9/aVZpEKxobX+zDG5zIT+iw6r6A2YBTrZl47C0iv+0bzzkSw=
  0
TEXT
  8
0
  6
CONTINUOUS
 10
0.000000
 20
-11.750000
 40
0.200000
  1
$PLWDWGb/g9NPCp3eSz8XlG10ZkRZw7MfKggOy02ZK66OFNbbfzUAdM0aPKCFXP0J57XCInc930WDlmwU/9ttHt9RL7XLYXcOJ9wzFm0S/ZzGZrmiig+lVLFAh7fKX2DNMAgxzePSpKeRcqtPaVF7s54xWTsLrINGpq4KQd3Fx5xqbnE54=
  0
TEXT
  8
0
  6
CONTINUOUS
 10
0.000000
 20
-12.000000
 40
0.200000
  1
$PLWDWGjnNS9jeu6rwms24e3r/99X/liENvrw9oD8mFwgNEOtYsGKWcH1V4GxMMeEG+mV7P7ye+NdcIiPcsaQf3jX+GJHWWh/OLDCAyiUWNDlTv7QWmX7xiJG6nrwZYlo6FIoB3mbk01S8fuubg2MgauchTBf2uEggmukqgON2zpe61BY0=
  0
TEXT
  8
0
  6
CONTINUOUS
 10
0.000000
 20
-12.250000
 40
0.200000
  1
$PLWDWGDxDnsv+qPi53Gjfn0fM+jFcHrBOoCPaUnUCFviiHq8Q89goI3EfxR3HFUQA8DoOXULJF/MbMHy7Ry5rzxxfBw7RM1VhreSnVCD56sFnC0euvRRsHXxcSbhsKiTPPlHVWZ8MdLsu+M87SQgV9Udl1BkfYA4agtRqj+eBolqFE3Fg=
  0
TEXT
  8
0
  6
CONTINUOUS
 10
0.000000
 20
-12.500000
 40
0.200000
  1
$PLWDWGO5x+hz83V0OzXtLYFXPrslyywZwWxLcVBh/RdNzAqXBQzhxnABvTvSXzZaMpGts9lT2kSCrHv3tzQXPusM12THn8w4X41ZqQ5Xfeuw96xLriRljRU6xxP0gz/JtK4neIQ+smUeFzst6U9J/npE8Iy56EL+k2TWCiR1pV2CHKAaU=
  0
TEXT
  8
0
  6
CONTINUOUS
 10
0.000000
 20
-12.750000
 40
0.200000
  1
$PLWDWG7JHmmzk5jp0XwMJOZa18NiAtNdaRUQTVuC2H6hjLxSOzWFjLVIolE4d+xAk9EGqni6a9EeXpmUHAAersaCYox3OCMDaXz0rWKAkBWH3/+m2et7HMcpop8phdsyrOmeKgp2G2DXxDWrRzgdiBD7+ueuDqZkxP+9pwXP6S17nlFYM=
  0
TEXT
  8
0
  6
CONTINUOUS
 10
0.000000
 20
-13.000000
 40
0.200000
  1
$PLWDWGXW3MDeQMFQ7gZj8+jmpQu64dtzf8ynL2j6YmL4m/IkAYX8KpFVKRBU79lNJrePOeTyoBJ5uxQwwpMsqg1bHR7iihfGSWZvzIbaNxQtAasQ4DZvsPPuXLIlE/g0MS107ogNUeT9fLyvH0lFUCWTPTW+dk5NmfmIVSnt3YOBeZe/U=
  0
TEXT
  8
0
  6
CONTINUOUS
 10
0.000000
 20
-13.250000
 40
0.200000
  1
$PLWDWGiDIJARqTON0vrfBzPPb6JmqN0Sg0ZkoASX+tQbgaeDQtXzl01rsXqHYF3KL0SQq7uMO/UkwyKE8F+xehxCvPLg7KD7CYbPxi678SGZUQIaMKtdnnsdKhDlKhowl+cYJLRTlkhLmx1pZTVUq5iTUb3PXeXe2O2vg3JYlr2jdou00=
  0
TEXT
  8
0
  6
CONTINUOUS
 10
0.000000
 20
-13.500000
 40
0.200000
  1
$PLWDWGyYD1wn1iW9BNxHRk2nfAaejtN+PYczJsOQtJzKKwfdiw/if2NBp3Q0y1pgoha69tx4WVvwSdDiDnvCSou/Ern0+Ozb1x7ZdZV5WjhuQhCtfpMysRMttWLEK8ZlbhaF6tuW1ejz3FLfRWY0qtInL3gl+E5blHTIHEmpuwnazmcMI=
  0
TEXT
  8
0
  6
CONTINUOUS
 10
0.000000
 20
-13.750000
 40
0.200000
  1
$PLWDWGUAR+uJkIrN+Badm+ufoDWKYjG+fA5vzzk6syBLOyxKYo5bQ/gY6a52JjWqGRJDOtnQ0DPUgJ1F2aM4MhgJs8jt3dkZCZ1cjXhyfmHGMJp8sRUJagfBwERDpfLROAzHkLQ6aR1tYJmwqGyWAzxY4Q245quDiJPd208RpoMkYuTro=
  0
TEXT
  8
0
  6
CONTINUOUS
 10
0.000000
 20
-14.000000
 40
0.200000
  1
$PLWDWG2JZrpsGsm42HWtkkmvMissxaEJe6Ih5TuU6SE1fsslaQIyOvi6nEnAjdZBfEduJzTZK6voRLusZ/0YPKUqD+0vX70fX9yVRgB9xMtnPII2VHTwwE6JMCL9QA3aVct2EFH5Ugp8nlX18xHy80ACyHj7IJULntdddt64PLX6G/Qhc=
  0
TEXT
  8
0
  6
CONTINUOUS
 10
0.000000
 20
-14.250000
 40
0.200000
  1
$PLWDWGvYgTfNHEUVYUwJUiZpZyLGLuMPW6bCYCQOy0cHZ2uACJE8f8wmubj8ZflpLRWgcrXccHkqmEUtZcuh2X2YDSCqrUDgASDZudckSowChVwHdQcPcTqaQafQMgcaOYJf136fqauw9zmUjOIA97TQwTsjlxAfKo+8hHfjLUoP1aJoE=
  0
TEXT
  8
0
  6
CONTINUOUS
 10
0.000000
 20
-14.500000
 40
0.200000
  1
$PLWDWGSXDm99CInV/HK9+/Nvy09U4/ewRembeo/RW6uI95g9x53XVEu1rlOyL5wcg/8tX0YquoT3ikxwxLwEFHjL+jWfHuOc2rMak5P3D6U7uxYwsOs0jFzdAnbE0fxbSxcI91n2ctuYkHxfz3Zp+Sr84UAtY0W65Gqcyx7Cr6/7lGuRI=
  0
TEXT
  8
0
  6
CONTINUOUS
 10
0.000000
 20
-14.750000
 40
0.200000
  1
$PLWDWGBQGFs1OnyKqaDrpAa8q6RGEtSzH0pq71EkaXZVYwiB0wt5IKOr7DgE/U3GABYAINH/M1ZFMODWTMxD/XFkNpDr51/qkx1pMKJ29EI+csTtUxpCeUcdkFGmMPeyNDkeEADTLJI5afMGEIdDVjeaRyrpX7ZpcnhqkUuH9N0WOP+Hk=
  0
TEXT
  8
0
  6
CONTINUOUS
 10
0.000000
 20
-15.000000
 40
0.200000
  1
$PLWDWGZuJM+1aOM6qJboMOkcr6WsbFl/Gv+oWmw6ZTSg1ziJXbsc+PJo6LoNEa6NqVahjBIX/Ptu+56LSvIVXiuHA00gWWf0uHL/5Vy1GjJVBmVEUoDHavGzdffYPyQaZoxeaLEhr9PbQo9Ac51/mOMKeDKN5bbSPEr1tUo95h3RXZyZU=
  0
TEXT
  8
0
  6
CONTINUOUS
 10
0.000000
 20
-15.250000
 40
0.200000
  1
$PLWDWG53AaVpZwf/uBz15mI5gNhRZNI3YzosRX3HKbQz9nzsNTOzOFYVgZ5ySpq+Rqc+OBJ7WDF9ogEoSudDYQAh14b/vpkFIaDeftX1Zxs+Z2ZWG2oke94IVN5KV9ehQ3EoC1W9LA+4U3jW1jmd4QY+RFpVZX/13jTQ6qmBDsf+8XS/g=
  0
TEXT
  8
0
  6
CONTINUOUS
 10
0.000000
 20
-15.500000
 40
0.200000
  1
$PLWDWG6DtHGL2rMANW12F6DHEk3+uzdPF8Xrf9//wOFag6lK/c0FPC/qQQ2RzNNTC1HMfBzV/pQ2exQwD5AYJ9OOO6mDJ1BETb09QVgrR2zilAmVyU1fA1fSzh9a6Fqsmlu8LLREIeFGqQBkmUEBvr/WyGC2AWrcXrSdvvQohS7UifVPI=
  0
TEXT
  8
0
  6
CONTINUOUS
 10
0.000000
 20
-15.750000
 40
0.200000
  1
$PLWDWG2hC0QX5LV/0cLWM12dfiJ+mcZ2Y0v+9oLUmO187F7YBOXXcEFSPG+/gzJklyIPoYNSLNH3ynumswEwCXRNxLLBvw2HETprJbYSxNEYKOTAodfd3g7npGW6aW1ZrpZXv9+7NwcIPDvOM1BPfyB5IWdKXJ9EJoB19Ye6NY8oxOJxA=
  0
TEXT
  8
0
  6
CONTINUOUS
 10
0.000000
 20
-16.000000
 40
0.200000
  1
$PLWDWG+5sjUS+/+ycpzF0y3lVSUS0PgW9yHbuCr7GdxwVsq/XLhKuVS7XV5h4gpMQD3cI60o/3eXAirpcEjFifZyHMHSNRaXbxWfnBM/iMhpM2lSWY8JMSlF9gNXcio2g64kv4Zuf854p4Chs8QfFMtcYkQ5mxnnY4MBsirARbKDSkhRA=
  0
TEXT
  8
0
  6
CONTINUOUS
 10
0.000000
 20
-16.250000
 40
0.200000
  1
$PLWDWGu4uPYtpYQUS/MAT/EeGzqVwnVONQ5hbT+Yt0lgKlNuvpi9rV5MwCx9sgfoVv8EuFl5dEVxXzh7ypxoQlcBVzgsD/LNsAwUrhAH99QYi066eG3Sigp25MDefO5Diosd/9EVN+Bogzme1jRy+jLm8F8Dm40gIxkkCdVC0FnCKqQdY=
  0
TEXT
  8
0
  6
CONTINUOUS
 10
0.000000
 20
-16.500000
 40
0.200000
  1
$PLWDWGF7PvCzSLjL1mkcMNY3O/B1TjOtWFD2HSAs3c7hy6vuE/bEsIsoo8b+2EUkvrCLxqpFt+dxm4USatQByCMa2Rx9KAIDs04xQM7uSHN4dF9SJRltFSZ+9audMDUkypTK1pv3QCQhNLSiMmzujZWH6GMgCLBWkQbn7n5jWCCf9AG8c=
  0
TEXT
  8
0
  6
CONTINUOUS
 10
0.000000
 20
-16.750000
 40
0.200000
  1
$PLWDWGV+fvcCyTo5mbR1qUFuzwr1GP+KrQS5dgtbFcDo9lDt7/t/5Lvy+unsnXcxvwQe1oMtUioPyMxVL6UpGzdbpn1JDPVqYS9oefNpFjqUFFomvZ/TedWtoyDzmVB3Ny/BUz8fy39G171AXh4YU1KSbD2ZQd9prvRBSYVv5HlWeR8/o=
  0
TEXT
  8
0
  6
CONTINUOUS
 10
0.000000
 20
-17.000000
 40
0.200000
  1
$PLWDWGd26vlO1j8GGL1AwEKzF14CQL99WMwpYws3p+Iy4C4RMO0zpwwCqlHezxlcMBvVYcTH7POVcMOEaPSzg0K6MFIk5XqsBRmm9KNNp+dPuV+eFBfgkBW0xOb7BLKnnABs22c6J+3jzKo/QriQ3YuayjifLRyXEKiwPmvXjyYgWaFDE=
  0
TEXT
  8
0
  6
CONTINUOUS
 10
0.000000
 20
-17.250000
 40
0.200000
  1
$PLWDWGp4pIPZZ4sj/bmaUXlCaHvxfWc1cd5Xou2gZnctkDnb+HcFz1oGk67GYreKsBLEZp5wftsah5KEXh0uKjRO6KQ7EwLOq15StMiye1MgD2NsPVcGui6Qjjqga+nxdKPbEQV2h2/tMR7wgLExrwHLzWfNuWMZjlyAdNpvYphZV7lhM=
  0
TEXT
  8
0
  6
CONTINUOUS
 10
0.000000
 20
-17.500000
 40
0.200000
  1
$PLWDWGxxXd7NYWoHPI1Tk4KAiOFaiKDP48bpgl7YssIOOBiYDKFpkQB1lDNHDaRj+ULySRVr5RTv7xim15bZV37/yoiaWKUuYq1uL49EomaBSRmqdb9CObfWYI0Mljywbu3TvY4U0u7Rn+SNXZwrtKeioHWcESJyiT6SV7gHQWEiw5oK8=
  0
TEXT
  8
0
  6
CONTINUOUS
 10
0.000000
 20
-17.750000
 40
0.200000
  1
$PLWDWGVP2U6Pn7rv4EiMSpHasyI6bCbBk5+hJh9k/tnMBEYMHVkizLl0VQA1H7VLCiafHoTuwAHQy1cJadDGlwZnjZq7kcF5lHZEBxHKnPZ6mCn7GEMLTiPi8BoWKCM6HFX+/iX2+MC/3ABF8o4rSBJpOUcL24TdqpksXR9wBwmpQelvw=
  0
TEXT
  8
0
  6
CONTINUOUS
 10
0.000000
 20
-18.000000
 40
0.200000
  1
$PLWDWGm1qxtZr+PmbWlhXBT4aGLOJFBcxjNiyyOuwmgHSGsmBcPjpX3UjhdGgd//ZODp87WXHGV7GHCCRra7ORPF8bJz2Dwq0prOfi5T3ku4xCIWfCqE9+Mh8N+99ZprfLpmWvxgxicHcEMqpTBcl72cFJLgnaLcwwomq3V2MJUCOZQUA=
  0
TEXT
  8
0
  6
CONTINUOUS
 10
0.000000
 20
-18.250000
 40
0.200000
  1
$PLWDWGkzsOmCgtJlUhpVR3B5lEQO94El3y4JCNFluGvq+DQUCKuGLCKNvZxrAdtcbEkERAyTgc2s92Ouz6y9XJA3yFFrV2Qlq8cB+34hQayFXkLdunqlnYOe4BYqWmE/mziih+7UEv9nzN9ovLGtoX0arHL+zJDNSEj5o6gEEXGvYQJrI=
  0
TEXT
  8
0
  6
CONTINUOUS
 10
0.000000
 20
-18.500000
 40
0.200000
  1
$PLWDWGpTkk20vxUw7euvsoNuvnjeMWhkMK6yIebVHpcyT9JsiftyI55zd2twT+C1/l/dQaipZjfc8W1VRnhxJpIgz5DrMNXkvvEK4kZ/0Jio/K6mlOwqVinEuR3ocLPZ/dXGVnlJq/+6t0+DfoOH6Ky+Hf6d9V9VwadOVziC9UTLT080o=
  0
TEXT
  8
0
  6
CONTINUOUS
 10
0.000000
 20
-18.750000
 40
0.200000
  1
$PLWDWG0AXEsOAnATOwIF992aE6uEZZETM2wFFCD0Ty7b0u/rxTBTeHeqzen+3gvpNKTbDJXDHUbReNfho8089ldMhJEZwxsWjVm5MP3mQR8vmqfp9+XSKdawb3mg0I6kSfNQD0Lz+VEBFefnUPd6/Wsi0Eo5O5QT4v/OGFXdj3L8lZsyI=
  0
TEXT
  8
0
  6
CONTINUOUS
 10
0.000000
 20
-19.000000
 40
0.200000
  1
$PLWDWGbV/RdpUJJbTp/8rOX+etckVRVLI0tmPUChYPhPcbJ/ZI1SBBPBwImmrF9mpSLTDHDFd8fEsseyEk9dSUGrKPyUXiDs+MW25fEw0RQnZwO1ERYOYv6+qDj0z6WUlS6sy8GzpyODGVOG0lpMktklgxsdqUYStoweINGpXz+QbUEAA=
  0
TEXT
  8
0
  6
CONTINUOUS
 10
0.000000
 20
-19.250000
 40
0.200000
  1
$PLWDWG4w/pVB4H5DIGQceoGgETxMHqSl63anP99XArYKRi+eq+kBW888Lpcz7se1YYYqNV6pXzEO0SBhXgxMhxuk7MEAnpYeZADg+H0AG5s1Fugrf4wQMcK1M/VJzYb8D+IOb8gzC1Vf1iDxUyWD8MX0lPSaSFXnBZQiOiZ7OskO1y0U4=
  0
TEXT
  8
0
  6
CONTINUOUS
 10
0.000000
 20
-19.500000
 40
0.200000
  1
$PLWDWGnyqiOU95ZRuizt2WmLK965728TXqZmytV+A7/jnLWuACPJXsaAEseoX7yaEdLVAyvGcGfsILEKeCVFHDT0jb/cFHakqX1q5CV6pe4rV6dVC9x7Nfq4mIHtbLsl5QwSQXC02BoxJLeT8XmbpACV3XfTw1fbq95e7/lE3167ex7T0=
  0
TEXT
  8
0
  6
CONTINUOUS
 10
0.000000
 20
-19.750000
 40
0.200000
  1
$PLWDWGLJN4N4fVu+cG5bsRIkIkh+7tInban8Kx8kSz/vZSjuCBMpWeUUYIgzH34zHxwSgzwatqoEseb37TqTPKU5+jgFspBFWU+RfzZU0YxgmTTVfoQJEf4CeflQSEKvuT60YG3JXxSdjqbEzhd/bhlvhh08RWNSCE7hvStcWGfYqgznc=
  0
TEXT
  8
0
  6
CONTINUOUS
 10
0.000000
 20
-20.000000
 40
0.200000
  1
$PLWDWGrV7Fw1UgpDzc/zm1E8rx/cBr1++BYc9DnlaxxnIvewuIp1gOsZ1OdGyBO72y4nul886+BBb03CEptRojkw5LCMoY3fA0m94HLiezzSSXyy59L0PzKvlBG0bOcv9M6FgJolfFF48ZPxRAch5VPTOpIfPYA2nEEZ93MQt9v1siihU=
  0
TEXT
  8
0
  6
CONTINUOUS
 10
0.000000
 20
-20.250000
 40
0.200000
  1
$PLWDWGuKGWq73yI5rS9VjtQF7F7zbVDvV4K2jTEa4aOWAjBuSRxBb3mLT98l+QUK8sxeNe2CEUgqjcZWfy8xhCgUZCQK9JqJJD4mpEVPDarK0+QkDyyK8CIIrXnItoyU1I91JRghCrpGtmLPnnFWTOGerMQ9p3jHq8M9vRMYta/DOuI1s=
  0
TEXT
  8
0
  6
CONTINUOUS
 10
0.000000
 20
-20.500000
 40
0.200000
  1
$PLWDWGBvf7SCNuwe03tWHox/FWJLpWuisF8LWVs0rn1bI6HwchaA70IezzTzN2Z8iijuzM28I8kiqA5Z+XF0wfD6yz6NFYXsh5F8Rot7mKz/E5AaBDOPQL092X/qCvl/f7eV8Lwwu5J+vOk0Ucrb+u79e6ak179+TBfLbyqm1fywx4rCg=
  0
TEXT
  8
0
  6
CONTINUOUS
 10
0.000000
 20
-20.750000
 40
0.200000
  1
$PLWDWG/8VZ+XzPE7f5PbjK8WJXBsYWoHtxAWBW3ymQqpYIyVWnkwAlT/Lx8MM9YgRsq8QXxwuj35w+V1eAsujddC9auJo8Pb5QRCUO0KA0AizIoZS/FSGUdwJpH/tpXUcB2Dl+eS+Ho8oIz5f8Ej8MjfzcXZkzO5r2Nx/lG1+r+/G2c5U=
  0
TEXT
  8
0
  6
CONTINUOUS
 10
0.000000
 20
-21.000000
 40
0.200000
  1
$PLWDWG5oufoLamSj4AqGJDHwIcPpsY5q29xHXLi5lJC1bWLQGzmlN/T00LRoJLYlOeUNw0dwYy6koADpGSyGeZyf2DMLr/+kb22f7foJi0nJcultBRHidMfWbzfmx00dM2skwR6w6XWeSJOQN+I1SDqE+7I4dFIqZIIzPhCRwT7NTT23M=
  0
TEXT
  8
0
  6
CONTINUOUS
 10
0.000000
 20
-21.250000
 40
0.200000
  1
$PLWDWGQEuvjtMZNKuvUSnJfREx5dSGTRse02wcldIsLPW+AhUpOXuF1kd4xg18LGPP3i59PSwHV67o1hFKzD1Vshxv3fyXMCQJ1elWWUWIDCQONXwpif0Am6b8/0eDM0tIp0hoILa4mw642Y1wxjdADmzx2H1sjYcoDr9uKALxYEZ0HoM=
  0
TEXT
  8
0
  6
CONTINUOUS
 10
0.000000
 20
-21.500000
 40
0.200000
  1
$PLWDWGxmPc7MbtoTCOD1TPHHpSA+RN5nPBzkEhOTy2+RNP4/VCJtULytZW9Kx4j6meG8XV6RRazwb2VRgRjvBxqOt4Atgskge6x0x30pdEuSGXllJF1YGnn3crbpJ1qBHaN63V63iFLZAzD2uUP2GKKdAIzwl0iw5MRCANyQpyoPEPGRo=
  0
TEXT
  8
0
  6
CONTINUOUS
 10
0.000000
 20
-21.750000
 40
0.200000
  1
$PLWDWG+Egkgkd/ZpXxhdpgShxlVcgJ+Fx1Cy/LYjbwQZ8zITbvfFgqUnF3hvRGuKO8PGao/m9EfHEzrkGVMkemckjc0wzAjWj5en+fn0ACzbPYgVLJV60k02L4/CsAV+rRNyiVl09D7TvwpdU2cSWiuR5mwyiEBYR6hm6ca+kxu9+XXl8=
  0
TEXT
  8
0
  6
CONTINUOUS
 10
0.000000
 20
-22.000000
 40
0.200000
  1
$PLWDWGqbbzTJK8zbJ4XGHs9oKOYkmUdRsT4Q4aDFksSWOC9b/YmpeBCUyk84c7ZDFwT0jC6es2l7Xm+S1B8gJygcamALBMQmooOn1SA7iRe9Tioa+GT/K6xzq49w5TCMAzWAwFYf32XuTvgZKSSDEw9vl+hwpBaV/XjI4e8/dJHL59eg8=
  0
TEXT
  8
0
  6
CONTINUOUS
 10
0.000000
 20
-22.250000
 40
0.200000
  1
$PLWDWGpitQB7NhVmL69PrFZiVZdwW1zcbaqEeqnqyeT3kAfJok5ImuWzOxhJEEJ91rZPp7ozjz/6FrvYrQRPIEz99gzNvqdZOMNNERPlLH1nGnXqGbDeHzapJ8GOXBvCAvqz9A2/GVY+0gW6p+tPPkcK8/QIjl2DVjjsVLU1d3GcSA6r8=
  0
TEXT
  8
0
  6
CONTINUOUS
 10
0.000000
 20
-22.500000
 40
0.200000
  1
$PLWDWGh4TI0phFkHTAe8JpMh/KwiN5edtjU6bdWs3YOchRpnlrbS9FDs8SauOP+9naq46vpsEuW3VMaEkIG0NhKr9gYwdMSTXAuGPwtKo/2M05HitbN9sLlf+GH836yYm5XLJKGheRyN4jE3fSvvDYJ/H61SFWyoeOIWoXm5td9Yzo0XY=
  0
TEXT
  8
0
  6
CONTINUOUS
 10
0.000000
 20
-22.750000
 40
0.200000
  1
$PLWDWGFOowWVMS10d1HUZcCFljT252DQawfJL9SS5lcZKmZQN20jOtuyvCeZsoHPOTo0O5UaXf8h8EP828ZqejLrQrgMeYhx0hLynSbgcHGOfPcCC9ngtHnl2qmmSY75egylWFVQpRp+uRTKBRC3Ak/Mw8EmohH32sq9I0HjeS0kU0iu4=
  0
TEXT
  8
0
  6
CONTINUOUS
 10
0.000000
 20
-23.000000
 40
0.200000
  1
$PLWDWGs4FquS2uPV/GDtxyl7b+lElJCotoNbySLgDesF4BowbV2YwiCzYxBveasNZ4ebuHEvA/zH9I1UXz3so4+RrV1VawZTz4hRufjE16cMdittrvibP7QCWOysV5EENh7dSeQzu1FsTNbOy4gQ7ajDEG4U/67wvzIkxxmLhZsU76kcY=
  0
TEXT
  8
0
  6
CONTINUOUS
 10
0.000000
 20
-23.250000
 40
0.200000
  1
$PLWDWGfaoIhoDNUq3lrdpNNL4vGflUNfj6iFKQEKH3Fdmzk69NUSPENBrYO3kNXYZ0Zm3SpMqleU4lhdS/M5vSlS0G6k5Kism6qXv5HZ/C3XMG9OdMJGJGe2KQbXwjze2Crng+1QUVQVZGHL64a2gL/0Z5WYN2n/in0iS2KbYCxVtHS0I=
  0
TEXT
  8
0
  6
CONTINUOUS
 10
0.000000
 20
-23.500000
 40
0.200000
  1
$PLWDWGQZoaYlhiuBHe0VkO2RyoAUlkLPDJMGrtE5FV7dBx12kDJL/GsDFJu+k1Wz7KUmH6NHMgbn5CJi6T9WPNCcYcQqhXmVNbA8SNTzN9kFlQOrt7DhgKJnKIV04NvYBiacAlDaytDmCXNC0/wD+zJ/yUzS2qYGeU+zT6ScNsE2i2wNY=
  0
TEXT
  8
0
  6
CONTINUOUS
 10
0.000000
 20
-23.750000
 40
0.200000
  1
$PLWDWG6lVrFYB3Jrp306eBoYq4+mDZPE6+PN2HQUPtJowx50DvEo6FR2TxopgFYoPDVLnJFGn8eS1RJ0+gFWqDJ5mfCl7R6y8s/cYsBjqQt2GpGwBg4TSS8rSQQpew2iNoKZkpHXjmiCNlKRfbjgRNlcDaMFDe2OsG6sRr2W2a58m7yAs=
  0
TEXT
  8
0
  6
CONTINUOUS
 10
0.000000
 20
-24.000000
 40
0.200000
  1
$PLWDWGr/Vgks+0n7gZWpSZQ1OYAfBup/3ZuF/CmEDy27xEr6WWGI/zMR5/DIARzgByRQ5AawStJStXqEZ+of3sB4Tz/9Heopa/jsKao6qe2ZkyjPwgTPXilUkLkd6VRLVrjxucEtpXQPvX5BT2ASJH0HQIJCu1+doQ6Uj8QyKUvSeVSzg=
  0
TEXT
  8
0
  6
CONTINUOUS
 10
0.000000
 20
-24.250000
 40
0.200000
  1
$PLWDWGO8VHyUmTagSSj5pISWy6m1pM1B3e7j6rPEKnMIT5qQjXFI8Uey8BMpB8iRE/LGJAOAY1TraFGcliCE1S8dTP/pWOQ1S5pPpQaD/Z3hN/c9ey40lwpncbuMSAkEGmm5aAx/g22e+mhPq5yGtRC6QbJnCAatx7SuDEPM+BgqtmQEA=
  0
TEXT
  8
0
  6
CONTINUOUS
 10
0.000000
 20
-24.500000
 40
0.200000
  1
$PLWDWG3rA3CAPeqIcRXhyPKq/IH8E3Rr3J6K0g/+dEqmWWnZYcWYJiatY5Cy7cXWmkKBUioH6aRMmH3T5CCFvYIVI9CcPOvuITie7NfMkKxFyE0n+yOtU754KazsmpLhlXbdbKnMAj5y1TJ/S0EoM9ZD5ZXsdXx8ShCy//ivuStwRUloQ=
  0
TEXT
  8
0
  6
CONTINUOUS
 10
0.000000
 20
-24.750000
 40
0.200000
  1
$PLWDWGj1bNZQNQ/5fgLNZL4nts3G/JWLmGIm8fQBao0+m+kCLtan6AgjP7CxAPy12yuCox4HF9fbQ67qY2G4eN8l2klRHYJm3IYByKLZOJt9+xmRhl9bJYOQ7XjJdUbxHlu+26FTPy+8mdkpwOl92pTP9ss/h4HUWX0kO7s82yrfKv3dg=
  0
TEXT
  8
0
  6
CONTINUOUS
 10
0.000000
 20
-25.000000
 40
0.200000
  1
$PLWDWGm+PxM69MeYjffm0V28+VXS9d2RklB/L2bO+Hirs1v+nBXWHliYfizqzEK0CwQKHKMo/umkaq3jgId77Ka3B1F6WLKrVYH8BJ6+tLXOZ4+Mu1E+h3pvizWVMCQiAk/lwmunsjXFb1kDVaVSPqz3VH6H3fzvBuLBceg7l/C2jDF3k=
  0
TEXT
  8
0
  6
CONTINUOUS
 10
0.000000
 20
-25.250000
 40
0.200000
  1
$PLWDWGranSwJ0uKAI9BhqfKpgIfN8TV6PTJD13GXnQx5mo/fEilyfQFvKUw+HD9THuCuMyCZGpSYozyn59f+vB2LBArKi+j3dQjfqgiOKR6Wr0OhhrKwCaChCEVKkDN3zzsRDEGTKcVLNUcjpHKHAvKmulluXQFjLnx0UlEd4YSzsrqbY=
  0
TEXT
  8
0
  6
CONTINUOUS
 10
0.000000
 20
-25.500000
 40
0.200000
  1
$PLWDWG0YzcG1D1iiZv3XGlREdQoPfqKMyVMe/bBeHmhEaASBbA4tHw7GZLpcOkp6r2K42KKNoAgpL2DXeOMA31doIIOOWyF9VTsOe64Xx6XFQZt22zvkIbXIWVlnmS6og9MChEtiJqIEgoAHmp16f617YxTHZrXxiTnkdG2wVcwMa1jaA=
  0
TEXT
  8
0
  6
CONTINUOUS
 10
0.000000
 20
-25.750000
 40
0.200000
  1
$PLWDWG9NFE5avTTlGulkAyMYYgahhDCKSSN2eNug3GXpVfluFePTr6UJvsPjRgjx4vI13La8fTOM3CY2+yoWEj3v4s7Bx9hXrHWfH6gEPOiVnYAMwNbI7vr1g28LeaOYJP80IPO+zgVm9i3xEQgeGiS/fQnge+Eht0aFQ87Ld6ractiRk=
  0
TEXT
  8
0
  6
CONTINUOUS
 10
0.000000
 20
-26.000000
 40
0.200000
  1
$PLWDWGnDglRU/BoDyBPEvtif1tY6dmZ/bLSS8bd6+ixqv7x3iR1LsA/1/RPkEnMnqVz72ggCnKFO/RF2jQPsStjiXtUy9SiPUQ1aiA5O5FLbZDPI3XSGGHNMUJpLZiaHJg3rMV+Id+SgchIYQmJSHuUA9lWMDFxevmESJlpmz5/mmWznY=
  0
TEXT
  8
0
  6
CONTINUOUS
 10
0.000000
 20
-26.250000
 40
0.200000
  1
$PLWDWGSN7vuOCTG6/jdI0x4aypG3naBmHtAkUlJ1k2gcHAcyupkLwzfvHqqmQ5WX6EmnAvx+xqEF89hFhQFExJXvsy+387ed3vG49wPj2IgqZDoUjtQuuGcrmV9mKNbh3Hg7/yeGnbaI2LlwxCDMEu0rQm6bvn0ct9WdTICtznPDkLFUM=
  0
TEXT
  8
0
  6
CONTINUOUS
 10
0.000000
 20
-26.500000
 40
0.200000
  1
$PLWDWGscN3dwWArUsa6yYuVQ8+QIrYLo5hit+6CDy2txOrgVFynHJeAz6ZBEAQJYUfPw5k26ArRm85yOgZ5cYEdGK/zsGXZVWSqFyreR2imV5TpB0vkiyKM59GclGH7AoCrShdqpcguYJNdwmLRsMS+Aglmvy9P9a0NcqDWKS06Jy8KWg=
  0
TEXT
  8
0
  6
CONTINUOUS
 10
0.000000
 20
-26.750000
 40
0.200000
  1
$PLWDWG+EqvPV+dZum3EprKk0tyk5kxca2MAm9DK/rLwtJyzL70PMcdOnBjrpcrGPpwe/z2OfWePqcj6vk+YUJ5MbkifOEtqeU9Ycvfu8J1hlFSvaPtF0L9iDl5dN8umWtClBpqznK5M5qGtz6lLXcpcbOzPE2w0d6VsszQku2uDlg28Ko=
  0
TEXT
  8
0
  6
CONTINUOUS
 10
0.000000
 20
-27.000000
 40
0.200000
  1
$PLWDWGK++EwoTXJfT0rYzUKE1zu37P+KYzOjtSsRvJlUhvUqwkLhz8mr1sQ/XiTwGiJuZkOc1TjwQDVs1jYNFFKyhWPJ/Bp2K+y45F/CYnkCXGGMwBgLDJraE+8PQlxxnSFMv59caUBHMnPlzmqfGimXKEb6aIDXuMzZhSAMT2i6NKLXM=
  0
TEXT
  8
0
  6
CONTINUOUS
 10
0.000000
 20
-27.250000
 40
0.200000
  1
$PLWDWGzGFUkiGQUIO7J5Q/SwFLyegngmNnfLm+ES4FvetNn7im0b0svoQTFjA+e7KyzPtAkGelYGeMPGIiMHK5Vn5Z0ioRBqV469Q1a4ZmTHS9ulq/m6saNTatIjc6+vI8BBQPJ1+XSiZi5Oj8wwZXjHGk6eGLbG1PgYLBag4CRS8aPHQ=
  0
TEXT
  8
0
  6
CONTINUOUS
 10
0.000000
 20
-27.500000
 40
0.200000
  1
$PLWDWGP+QMYAur8ndeJGdPLSMIrS6HJpXCfv19eQ33kOA4YbKQ8uybvbgv5q/QliGr+FTHvfxsWG8z9c16FXS9UgdfamAyxCJiiJIrb9wrrSCeRa4X4gR8E93VwHhTMVjUDMQ+qLOeWCmRJvmGau6iEpwRyXA9tqgqdD86t0dDEDAweT8=
  0
TEXT
  8
0
  6
CONTINUOUS
 10
0.000000
 20
-27.750000
 40
0.200000
  1
$PLWDWGxPyUL7hEtenZn/YCGH6RYspUZYhvYsS69vP+et1hikgM6RzyZrkGgwpFZmag4GAkOihak1i4sgWI/VOcDmMfmLqb7v0sFOgmsK3e7Hdi6nYbewKBFUs+Ll9xcw8al9VtdAcCQ3RwHujh9KYGdhb9VNyaUrU34fxqb3rQbzfaOTo=
  0
TEXT
  8
0
  6
CONTINUOUS
 10
0.000000
 20
-28.000000
 40
0.200000
  1
$PLWDWGgKwIrnUX4o3GvQ9gqHlhauizJDHS2WWjGh1qco8D9sdnzBDNhKPxNCejRWbsqlj1BgLTFFCj51hNVmDJNegUgR78FPSS15eflYjRhExIoXvJtoRx32chcIF871x+hhXB9qGC2w2Y9UJth2C/nBuQL+snIc9XUD27Ibcso4IGmqU=
  0
TEXT
  8
0
  6
CONTINUOUS
 10
0.000000
 20
-28.250000
 40
0.200000
  1
$PLWDWGTaTIOFPAitxzhvGxlbQ36pyEapAnE/6WomEyFIgCIplDzLpna7QgJfYP3cJTfn3gO+q/pyErkc/2dWhM+aZ+Xt7M0gHJ6U9DUExfdbj7w2aOZucMZ5h1ktDREK3pleebbIMnuTV7PEDL/OTmrxNOijHc7MlLBLcBcIM61SRUjvU=
  0
TEXT
  8
0
  6
CONTINUOUS
 10
0.000000
 20
-28.500000
 40
0.200000
  1
$PLWDWGFF6MR042TBV2DuXRjluA6IwA/D0+2dJkwCqE+kkBPEBfmn4D2YnfQJRBTpckvdFnvLMpRnolhyfA7nkJyT/A7RaPePNPqIMOxJ4E67UVrU8INe7n+jNdcAxvRSpHv3n5EL0CJLaTPbTuIEKSfHXJm7x7kKFL+W8dNhfLkYk/k1c=
  0
TEXT
  8
0
  6
CONTINUOUS
 10
0.000000
 20
-28.750000
 40
0.200000
  1
$PLWDWGr9qmsUt5UNVVQecQFm7FER6ZxVxrHqunnq/VWJz1aLNLL94AkiNc/OzuCyR4FkLYbfM5lRY/RKndSOJYZ1UwiQ6En1oyHIw+b96vNS3SRICAgAvMAiffcMnjGJC5zbnIgH4FSh6+l1D970+FYc3gbijxBaYsxjtRSxsCimFSrAI=
  0
TEXT
  8
0
  6
CONTINUOUS
 10
0.000000
 20
-29.000000
 40
0.200000
  1
$PLWDWGs0entNddTzfdamTBmrCt2dPDEXyafYulyEG1WI/Ad7mQzFjcV4JMA5up5CsvR9dopL9qYEm7U+pxX0bdXc0AJ19Rt8rCS3HqDg5NOVgOAx+LfiUmCXeXIbgjOHQiaha/63ts2b0t6fPx7aJpSSWdytMTacnug25xryP7uMXYrVM=
  0
TEXT
  8
0
  6
CONTINUOUS
 10
0.000000
 20
-29.250000
 40
0.200000
  1
$PLWDWGr1IFil+3e1E7AUrQO6FQgWw/lNmkJjWNCcDtJlYBTSSEsQz2VnYuJJTZIefEPpMH7lYD1QifiJFDuGq1BWBHOSEWpdlE+eQCh4/gNl+//7ENe9reWXFZvtn6oJFSzNNUFdBB8wDDAurdrFsOHqQC0fBBEfz1qVIuwsnRbegbSR4=
  0
TEXT
  8
0
  6
CONTINUOUS
 10
0.000000
 20
-29.500000
 40
0.200000
  1
$PLWDWGYwPygdGaMNaRTTPRj/R7ODXbS7Oh0h62xMkNvVRRD+fhHF9vE19TDnMNTaN1Bq7kZUj0xyo0eQ5DAhx8iRLG0yYM9OScCGKiF3X8/fHHuLU/GlOY30tnHuoRUj75kRl44ea5rZxJEN54iQY4TCHD4GVTgpsIdtokK1Azlu9ENyU=
  0
TEXT
  8
0
  6
CONTINUOUS
 10
0.000000
 20
-29.750000
 40
0.200000
  1
$PLWDWGAq50setPTuHjU6NNinBXq2GTrR+tVKycQK9lcsl0bjxlIPc9veJ+HVYRwko0Q5j1RLJqWxU1r4qblwyZgR/w5L5T1Fplk0CW/2Z+J/imjv9pfpomkCnAs6HX7V+Fg/UzcqBkwjliWdjSZbnm93ZvH2ki/2lgKlxYoqWC8jIZ5sg=
  0
TEXT
  8
0
  6
CONTINUOUS
 10
0.000000
 20
-30.000000
 40
0.200000
  1
$PLWDWGshedf7ubuChqX3MqmXwT9hccGTIJdOibBIitP4vSDz+UvIkFmwrXAgmfHe4By6sCY2NlhVuHRk3rkG03E7GgnhWhBHdG3ubAjxqWDSCRZGR3otbz2aRe0Ct51YK8hdekh/jwhhySSdirgw6iT2NM4wbiIPR1kXI4YsTG6VeBkUU=
  0
TEXT
  8
0
  6
CONTINUOUS
 10
0.000000
 20
-30.250000
 40
0.200000
  1
$PLWDWGzrf/A2pkWqijTdUt+q1ySuRSHL4uA0TaHB5tkRCR5BqKGnNu9mbvTKJlX3paT+VV3Tvm00i7HNJnIGhf6HleLbGMjid6cH1vQ69tXTCEfrQmoB3WrgZdpQX8/xTZuye+VxPeG02gSUbKneGOjA5/MLXYLWzqV0LTunWjTm3udgw=
  0
TEXT
  8
0
  6
CONTINUOUS
 10
0.000000
 20
-30.500000
 40
0.200000
  1
$PLWDWG+7HJBygVf0bT7CswW2BZqJ7p8X3DrBaDHlNNero6LH6TFQ90vFpBNeMYHB01eDlAsmefiaK+n4xw1AIp8H85QMIPcpvNyQePhzPwqO2FV/v5gP1aAO1bSYSb5cqvkCL1CxeYbAfqwDMDUyuo/TbosFudrZ5/lxpX6rzLyE01tEQ=
  0
TEXT
  8
0
  6
CONTINUOUS
 10
0.000000
 20
-30.750000
 40
0.200000
  1
$PLWDWGodWwOCPn/uHwYXLE4UOUFp62+S77BVNojWPESwiQOlU3qzTp3moCwlc3GJ8S5bSCn5kd8oaOid+CZSSbP3WHvfaBgzvWb66zD6TmVCGsxk0+CBwDijaJKIjehIVC2hMuTMwnyns2Y7eMlts6OL9W7pf299GkMZyD6RiVCuOQ0jA=
  0
TEXT
  8
0
  6
CONTINUOUS
 10
0.000000
 20
-31.000000
 40
0.200000
  1
$PLWDWG6kCyoj1mTRWK4MeRq48E1lX2h5If6E7NRwUNND7pQ/6PfosE+3N34S3l2R00Qwlj2lzNFNkeyJec0AxAKUoSderSAphGaRXFl27X9Nh9BNL+EOsYjbjs+RoxwMgjYH2x6jNlPjtuobdgJgES6D7FZGKZ15AY2gcsy0s59VtuokA=
  0
TEXT
  8
0
  6
CONTINUOUS
 10
0.000000
 20
-31.250000
 40
0.200000
  1
$PLWDWGXvCielj4UtZe1oVVXNwM4Vs0OKi95+paSASwZemvGmak1VIj2QDfW+0UwxSqMzuBIlCh1zdINrEqDh9iJWifZJATtxcBLqgtwzP59dU0XuFp8PCZJHc/dYo2xy0xp4tVUzAuN8b2oS6bd2MHeJO9Hs0cB1+1MzHel5AeUsIXLyI=
  0
TEXT
  8
0
  6
CONTINUOUS
 10
0.000000
 20
-31.500000
 40
0.200000
  1
$PLWDWG+AybetQkUjAIwvC65xFO5Ri53vsTDAXh/BrClH8JKf45K0yFhSgEeYq+tfY0WtOtrePb+3pG/FcRqah3D74Nc8+K1SF12dyTF13Vrb+HVAyuFK5uOFSUjqvhev0q1o8Rfn9oGJL2igCB41CSRqR4Tkpy2RwKfY9oGw5N5R/2VWk=
  0
TEXT
  8
0
  6
CONTINUOUS
 10
0.000000
 20
-31.750000
 40
0.200000
  1
$PLWDWGrVObBF8hDxtDEsehPz3LfrlTIsX+zEMzYBnTqFv7E0Yyh2i/rLJj4pU4Sy9+Dc4gi+ARkJwnPv/IJShsCCeIa+pqdRCZ42GKgcvDlGZ1VUfBWz4VKsT+kj5XYh0I/DzbK8uqr7bKo6QerltCCB01WTCE1ONQLrv3JWWeL8ArZN4=
  0
TEXT
  8
0
  6
CONTINUOUS
 10
0.000000
 20
-32.000000
 40
0.200000
  1
$PLWDWGZpj69s6KRDUSgcCC2A/t/wnRqZh6vr82ANdvmsmaL9abU4mAR+EQHXsRmiBb9UPKmsrojHvoUuDwej6ST+5CFZL8nuVugYWcagXEMV7cSw97QHuXANYt/hJW4saCwqMl2/WIGC1r5UGfkc/6bl7To2vnt1iP5v7IYDNLgLAD/Yo=
  0
TEXT
  8
0
  6
CONTINUOUS
 10
0.000000
 20
-32.250000
 40
0.200000
  1
$PLWDWGMKZulNqMFn58jeMByUoWPh7+MJiHP8GASmV9kheBe25xGxO+NpQSD5F3vlJ0jk1aZl1XlcPV7QjV5VKeOxBGxXCpGOcq1Vot/zXmbOLGhvN5s8FOtivE17GtgK6NhDMMfsrW2LrP9/DRkgoD7yVhN03x8OBQiyKOQJQNzwLkmzk=
  0
TEXT
  8
0
  6
CONTINUOUS
 10
0.000000
 20
-32.500000
 40
0.200000
  1
$PLWDWGWKTttALByOqHrdqeHy8BBJR62VGDU/j1m38ehTAw5oOhN6ihckslucyrwDHmY/AXApoawUjm5b8Q6xFirNmlxgik95qX5ObJ1Iy9GWSFOkAlrZ1u+1WR38CAx2y+mzpAGJ4o5TjYB+7wJUP8sYOtFrb/4BfcA5jHihZAyh3RZyQ=
  0
TEXT
  8
0
  6
CONTINUOUS
 10
0.000000
 20
-32.750000
 40
0.200000
  1
$PLWDWGKlBacBnroSGKTBofNPN0ZQCipSvJ34dkx8N6hml2QIHTWUZl+V7UOwfmhnRgND95pHoS6ns9mY/OVE4H1l7JXJvBI4GLTyNtEoCYl08okmTmXzpAqbq03RtXOT4pmHAzoCYKe53OMMD1+QHzw002c9dd/rJwq/ym8jf2TTgM4Vk=
  0
TEXT
  8
0
  6
CONTINUOUS
 10
0.000000
 20
-33.000000
 40
0.200000
  1
$PLWDWGYzjay7rJUxf7+izsb7rPlAPJXFW9PPSyxX8nPt7vnzkPLUOeIXCyv6Z37Zy0D5uGMFbKTfkPD48HpdMUaLLNHwAdixNBBK4Xu1uV4igGPtgvn+qbnYbLwqA1qPLOdbUdqzwCkmdrbi2b2nl8KpTvWKUlXfFsp5l1mx6uk8KX88w=
  0
TEXT
  8
0
  6
CONTINUOUS
 10
0.000000
 20
-33.250000
 40
0.200000
  1
$PLWDWGuaFhLnQYnXY785f8VhPJ1Ubo/0tQ1QzRih1BhvJd9DDDXTFZCxakGgbs8UD1zJLh1aREbSDfpwDjB65hWDkIWW+Snweq78F0tT33htJhz752aojquHAq0qRHp1jaibnAuDfx6I0TA4uPPCPPql+V8WZyVNwX7fFZPrFi1W2gXt8=
  0
TEXT
  8
0
  6
CONTINUOUS
 10
0.000000
 20
-33.500000
 40
0.200000
  1
$PLWDWGxuzq02cl2TJjrOFam9y0yFPkIxNI+fPu4Aaf/6ZIQTjr/Xzi1sqZeuWSnlRuKntvwPoeYUbsBGzhvxQELjND/TppC484uNQ3Q4XxOlm65EYy0OML9HmoYgrd8N7jGsetjMo03zpSHfecTcxbOPdyzNOSh6WogWJ+1paFjFpqJD8=
  0
TEXT
  8
0
  6
CONTINUOUS
 10
0.000000
 20
-33.750000
 40
0.200000
  1
$PLWDWGn2EKiQ4CFNHsIyKI93euIoMOfaaNVqkm3Aydd2LbvjpcE84e7tqP9jX0m5YW+xheuC4OhBPUfEAudN/KvZYVHXOtC4ht3fWRE2FWEE6jrWrIjBc53jjMnS9cwYyGSHs2GW8B/SUL0QtNEn4Y8HYyOYB0/b1DfUman6Ql8LmRnqM=
  0
TEXT
  8
0
  6
CONTINUOUS
 10
0.000000
 20
-34.000000
 40
0.200000
  1
$PLWDWGo3y7Eju1Hh4eqWCC8pyZLVIVrRk/KNKCjXRZXOBwondMbYD3R00+sfjjiofUgG4WZRrS6t0VlMrA+tn6VYnLrjeoF45GCni/K7rI/ZeiIiVWvJdtnLY6YKeY/cvrCfClFhlutqFdh4ufqXMKuQw4ZVZlrdlpmrIQDJXTEu8yICA=
  0
TEXT
  8
0
  6
CONTINUOUS
 10
0.000000
 20
-34.250000
 40
0.200000
  1
$PLWDWGfsgQCmTmLNKH89AmYKZy8GAG13K493GKerv5cszIMzwqQy4d+kGVzRNACfj4GwfsEo66HCXYKwyYbs2v7GgfNXDfu1kYcu5ZoALZ45Ui6aoG0l2Wqfi4P1tib4ObCM+qC1rhhtgjf9O8IjzQhOQOiQIdzqkS6e5Xk9Ry7yVh2es=
  0
TEXT
  8
0
  6
CONTINUOUS
 10
0.000000
 20
-34.500000
 40
0.200000
  1
$PLWDWG06xNhSQHcCmkZGenqEflEzmE7kBefuMX7P2LtYty4vE+Ix55FDwI3w9iSmjiZCpEflzJwB76QD8O9L1gPsWyIS3BwkrJ0ZgXVZai68TOWmLl7fsfjasVrHu3RPPE5BOrisHASzbz1Xk6mUdxSN44QOL4f4Wwv1I7M0f6yGTSOEA=
  0
TEXT
  8
0
  6
CONTINUOUS
 10
0.000000
 20
-34.750000
 40
0.200000
  1
$PLWDWGWvu+ntPYhCYn65fxUbyy/UFQGNzrB5HXsqhwFAdqt9U/n7FHpah1tpp3ZXSJOhnIqTrRPMgMPC+OOBFu1vsIoWLCodWGUDupEntWlPw9Q/jgu8HukIx4GLTLG4M8Mg6ppqIR5tFY0MrEb9BlE31B2tweemtKT0jmqgCbqwUdslk=
  0
TEXT
  8
0
  6
CONTINUOUS
 10
0.000000
 20
-35.000000
 40
0.200000
  1
$PLWDWG+hP04Gl1nH25ZLL9OjU5of3Pq2QyjMdbdYIkttygFPpINt/axS1x94oT2GrBdhGu6JLqGrEBr7CJ3eJ4jvTNs4KDCHcslgKP4xWvENNkw6hqowMpCPqBnDwMFCsH7SkE4GZMj/qtntyi+8qoim3LkB2kxL1j1dWkJf3gKESvvuQ=
  0
TEXT
  8
0
  6
CONTINUOUS
 10
0.000000
 20
-35.250000
 40
0.200000
  1
$PLWDWGwaNghjXQfnNlYJv2p2MVbuLOLC0vF+96AP15DT4RQKNDxMimvZQceb0XVjkpurfLcKdk9f33MlBR+76B2YxmwF6rgsmmLfPgeiwkuPa0kCfIoYocFkSxRsshsiXWm1LpM/X+i9LwQggm916p/CoRr3LU61srsRq4GhTHV3v+A3Y=
  0
TEXT
  8
0
  6
CONTINUOUS
 10
0.000000
 20
-35.500000
 40
0.200000
  1
$PLWDWGPCrCadd+qiHJPb1vLuBChhye9xknfxrpjiCSEkZj0+Ngz0BwlP0cfdYgWlVJCRxTyAq1vvEZ9k+gQmoosWI5YuXHvFYFh2yEJ7DbtWDRWNNBXhskU4s6zFy99ZqReUjo4lYL8rhZlk63VxbBECpHPtGl3c2/JBwiLqr2o5viKYw=
  0
TEXT
  8
0
  6
CONTINUOUS
 10
0.000000
 20
-35.750000
 40
0.200000
  1
$PLWDWG/9H7oTTsX/aP/dxblL4T4ET9x3WPAPn8Z9e7T71xb7cnFOwISvXyv3N462R83X3KBhipu7RvYpoKxmMVcftPnyVqyL+1GgbRGvkX5oHUx9mVib1x8ronQmdmT7+4Ehm3emywERF85VUzfF/Rg+0J6k4/kHxjg7aA5L+cgbkrF8M=
  0
TEXT
  8
0
  6
CONTINUOUS
 10
0.000000
 20
-36.000000
 40
0.200000
  1
$PLWDWGH3VfNz+NQEQtLlGp2EEs4OpOl0sgxnoO6jB5LxmwFpCVw0N2DF5s77zPbaX5VY2HYBBi+jQI4GGrfcNK2o5BON35SyH35Uu1PxCcfhaW7gr/pN36RRvuDjxronbc7GmLSl1awWFzKtXvcIoqFCYapBV4nn8jRVrXJQ8TIHM8Z98=
  0
TEXT
  8
0
  6
CONTINUOUS
 10
0.000000
 20
-36.250000
 40
0.200000
  1
$PLWDWGTEgtM0octu4Ew22o8UVdCcSoCD3d6w+/4eiqQ02T5qRfkKdrKF6W6xZJoYtnAwAurovwm5/xgh2b+sSZRmeQ2sWLcvnmKGfkjfnk2k/r6RrnH9VOsus9aBLh8HLxKX3L6XF8HR5Pp2yAinjpegFWAKdkT2O4VVvNLsmzQQrNFVc=
  0
TEXT
  8
0
  6
CONTINUOUS
 10
0.000000
 20
-36.500000
 40
0.200000
  1
$PLWDWGg5iUD03qgVJWbkNxl8/of4QZ9/porvT1x9hE0crpxT7lGSpS60MDKLMi36uEufqwGXxbf88HoPmwNrfUSXSJabMhvE33QIIgLGSlP5FbnD8hNqpKCWe9zJ8xMJEGldDDI2WOtA9LrPaf0AZ3M5W8LKP5bfC7DXx/HgiiK9ogAuE=
  0
TEXT
  8
0
  6
CONTINUOUS
 10
0.000000
 20
-36.750000
 40
0.200000
  1
$PLWDWGyfBgmaYvqNOt3Xahuf41QAqeqrJ9NesqRkJvdg06NkDgGDx+j5efOvMqnTbgQZL+Eh5hV24wV9ir/BWmdaCN4Rjn+clSv3pf+IrrXceGoc6QPCI6zSA2PaRHRJaveZUb7YKWlQllAOUg1ksRxpen79k9VxDbMPsRCLLEAhf6tEs=
  0
TEXT
  8
0
  6
CONTINUOUS
 10
0.000000
 20
-37.000000
 40
0.200000
  1
$PLWDWGkZ3hUrb+ODZWYFaTDstTGhdKm7pUZAaju78gYGFFt22TAQ+ML/qZfckI6hGKLT1QNCowX/0t5LPljCfN7UvZxwxTGNxfqM/Y9giJU8w5Z9+FKBjoIjtjnoXkB51kczYtFhpjjye/RLZAdHLM6oSog2boA2Zt9ZUNlr8kpBDLj0I=
  0
TEXT
  8
0
  6
CONTINUOUS
 10
0.000000
 20
-37.250000
 40
0.200000
  1
$PLWDWG90fdGbQ+Qtuh4tfeY4LNPdFYDbmLHg1laHE7sMFefZ7cy8p1WIr2nzCBdu3zBBa9Ag06hlOQ5/ai7yXeI8b+LlXEoCJ4Jn20mM5JwXYnEJtRNHglD3KUe8YUY25azbEOG/mvfvB8iU17B79Lgq/7k7jO3k97qNoysnr9jNiNbbQ=
  0
TEXT
  8
0
  6
CONTINUOUS
 10
0.000000
 20
-37.500000
 40
0.200000
  1
$PLWDWG0MYxBG/CdxkNobCEXVD0bq3v0WaO37vfb2Xf+0Mfnj1taOi7Wk1uSxLXvraQO92FEzS947GHTARvyZOeRxnXGTf5oo7TtkywZg4jPjP3XoQuGIp50947ZCh8G9+oes9e4qO8GP7upyRZ7uLc/PE/reosdO6Qc6ZBQdtogktDUEg=
  0
TEXT
  8
0
  6
CONTINUOUS
 10
0.000000
 20
-37.750000
 40
0.200000
  1
$PLWDWGV6Dq5kidCJknl3C+aAJeV0VHiS4AqsawMkO3e/McjdgwTqGoTXwcuhCgv60qWqnLCD85kZp2HTVgUgZL3hpxok77spCDdyPWNgWpnDHtDbwQpH9kp6WN8CGubi51XotBigEjZ4+mTL1nV7zhGVAPdc4kj3KTiDF1zlufGWC2bXc=
  0
TEXT
  8
0
  6
CONTINUOUS
 10
0.000000
 20
-38.000000
 40
0.200000
  1
$PLWDWGEoa4PxfODJhu1IgrRPzeKmi7NwaayaLOSYYOC6EtmFu3GceyNhgXwfnPYotDYF020XlQsh1tTSdfgEVV99w3BcKY+ZgdRH4+E+OFHhCy5KzEoQmY9bN/wQWdQatjf8aq7uFOYzH0ywfGFOYruvkqfzszOw0OtWeFJ2lVIhlfoLI=
  0
TEXT
  8
0
  6
CONTINUOUS
 10
0.000000
 20
-38.250000
 40
0.200000
  1
$PLWDWGnBGRhqgHzzacRWYTdWiIfaZLYVJFoGIcQugVlaETvZAJx/yLiaRft6WBbu/EFEBClpxXGtOSxjXepHYa6L3oTg6kE0St1ozPw3zQQD5Lypu2UlVNImzf/lYDxQYGx5bR2uqxjbWnQjQRdiBviDr7f2E0ljq2qhlDxydjoDi3Zfk=
  0
TEXT
  8
0
  6
CONTINUOUS
 10
0.000000
 20
-38.500000
 40
0.200000
  1
$PLWDWGNcuBVdStJNYVHKAFKKMG97qavCDIdu5E4aqHeY/HqOGpKHl7kmIYTZtllFJxCrHS9mMoU2Ut0QI7ICeIEnoJHZ9FT1ke1xyjQHbKP51MxonsVGWTWbWe/fCG3S5IZE+GMlgb9JfEttLniR9sFR9kZMtatXivlkzc+ijceAIV2OE=
  0
TEXT
  8
0
  6
CONTINUOUS
 10
0.000000
 20
-38.750000
 40
0.200000
  1
$PLWDWG2iShFsJRzkili9nuvtvjUS+ApSD8y+QiURe4OQ1+Vex+6EEw8V8R/Gf/OLlODzZAI1sfcHcdvXAmWVaQtR42QDkoCO3wKoWjgbp0nYTpnCc/rTApdiTf0aIbI4ZSHlKaP7mTfLXbXvu7FFj8Vy/9YJwrBm+kQBBYR3FXb+wpjvc=
  0
TEXT
  8
0
  6
CONTINUOUS
 10
0.000000
 20
-39.000000
 40
0.200000
  1
$PLWDWGs5HG/3qc1UTQrNj4biUMbngNlaIUfGoasZbNbHb0EoUl9hFjlfwr0tXNyr8I4JmJkc70sqZoFA3S7CuForcdQQKIruIc+QxEkT/+JU2ThtmpsegIXlEe28likVLlS7U6FjWkoWuSlMreoFyINqiFGa86vxdYAY5HZzEoMMFwxiQ=
  0
TEXT
  8
0
  6
CONTINUOUS
 10
0.000000
 20
-39.250000
 40
0.200000
  1
$PLWDWGQfs53pznsh5QtWIj3EManphAWYazzCDYoNl+rlj8laU8qktLqazecnJPktRvAgmP4nAyiqB6y8HzOZU+647dAlwCv3C9CE0FCqF8+6eYHAUcLs3VAfOWSCkpLOjn+IdPRh67uE/RxO5UovoSL29Ml+Zuy/ySz/7Qri1PJhQDZnw=
  0
TEXT
  8
0
  6
CONTINUOUS
 10
0.000000
 20
-39.500000
 40
0.200000
  1
$PLWDWGGANlmzI/kCH+BD15e/MLHo7r2zMFPTGmx7e0b1vGfFxRFVmEXygOou5t0PHo9BxRWgX2zYnLNNQjUpvGXnvmHq6180f6oJXDf3pPkecqnvlA7KYvQNGfN0ZIydBMqFOZqjXa9mUO/qYD9IjT5gtxTnDcu6UpPAbl2aNP74Us9oU=
  0
TEXT
  8
0
  6
CONTINUOUS
 10
0.000000
 20
-39.750000
 40
0.200000
  1
$PLWDWGzrtrjIZ6zt9h9OImvRoKz55FrKx+ulU6TIVeCtASQFrbZYU7UqwTPYcEJNr0F7ue7EUxHPXvMpZ5SG63VnRhjPGVfnWn8oUzdLOiMkg0s22jHWCIwfTJjjzjJr/H3qYjHsFaG6n3iqvA5wu7nFsUHHB+Acr298Fp/uoZ0vN9xvI=
  0
TEXT
  8
0
  6
CONTINUOUS
 10
0.000000
 20
-40.000000
 40
0.200000
  1
$PLWDWGBmbDEKM4LS1uFcDjgEFKLsfRy2+w7EQNy/wXSxnLHiSastgrpAF/vYRnN0aduXnROggJP0HfT1sM02sg6ZgUpqWo39NYBtvMt42Eq1yTzBo+16klH03oMDV9+pS/ZXwIqgWcCyfBcGt3hAm74pXP9ga2WOp6fXBhW/+x/oK1L7I=
  0
TEXT
  8
0
  6
CONTINUOUS
 10
0.000000
 20
-40.250000
 40
0.200000
  1
$PLWDWGO6EkQGGziBDJjZrtQIeAaV63POIz6nO5Kb3d+AK3pH2jcVTRhKgPcTQCs8W6GTlmNm+vXotVnFvuZOTl6aAKazpPJi5cq7il0a38hgfRqJFjHaSWj4tUUoUZdimdUnFvlQK3uALK56e/XELPBP9kbzj4wrwe6qYQ9frEEy2eA6I=
  0
TEXT
  8
0
  6
CONTINUOUS
 10
0.000000
 20
-40.500000
 40
0.200000
  1
$PLWDWGETa+fGo1wBhYZnskGSk6iQh+own4n/Ye+75VSVbhxqmeEWU/B4HSdIqgwFo+JAd9gctavkalYrCsFLfGq6bzXc2av6bdbONgCA2r1HkpsrTuPLtZliTbc7m5RTyepS7EjsznIPEJTonaxrra6LAy/qBDDuUOUIGDiRfUYUeheHc=
  0
TEXT
  8
0
  6
CONTINUOUS
 10
0.000000
 20
-40.750000
 40
0.200000
  1
$PLWDWG82XBZtQq9FeTjRdVKHBycr+2VlfOHg+9celMRzwRvXKgi04aTw7+HhFCUdGdmlf+jZCxPEo1SGPEQLJfAZrZRFzb5TiKCT4ML7KzXpQpNEC3VBJ295si1RX6n5dRLzRACFvSQ8cY/cBWBkdj7QPQo8x6UUjCJYsN8u8/9Zeekms=
  0
TEXT
  8
0
  6
CONTINUOUS
 10
0.000000
 20
-41.000000
 40
0.200000
  1
$PLWDWGS1+tcVCeGi6lo4fCw1bFM5TdKGvaIQco9jNvrW7YtB2G/DYx9y4F8rfy8k9swBXkge+ZIQsjhn4YTNYXzEdzv7yTrd0ViI5v/oeqAIojhDZ22TMSZ0hZwLvWDkFHXqd5GiDoejd2/xVh2CqwDZTVB5Pa6CGGK3KaDJkFDTfes/M=
  0
TEXT
  8
0
  6
CONTINUOUS
 10
0.000000
 20
-41.250000
 40
0.200000
  1
$PLWDWGYWO8Ae12mblnUus8/CavPAWBDqwDEye488Mkrc/kht4CpC7exois5u+HshApug9bDJoSu87mkJIyGugd5I/0o8m+/JwmtjpZcmScQZMKOcvsKQ71tLU5WnxCRpKNgHNJlCP9fM5sptao5ax84qbpQn20rzN5d/tPYE7JpvenSLM=
  0
TEXT
  8
0
  6
CONTINUOUS
 10
0.000000
 20
-41.500000
 40
0.200000
  1
$PLWDWGAC1lYF7GhhHxIfjvvYMhPuuVQY9IvbPTrJkmPM0ocXJR29ADqXuZ3d/yEBUh4oNXROrTQDUsEJ9R5dNvEmPmegURcTASIo0t9aYHfsmxzYGbQrkjdxISO9cqwLSeGPWYSIQNlqUPaTroVTolRLiqxJ8hHmrGaa9mv+bafUXXN3Y=
  0
TEXT
  8
0
  6
CONTINUOUS
 10
0.000000
 20
-41.750000
 40
0.200000
  1
$PLWDWGO24WDBcdwemc082Aw6yT7F5zJ2BGFZvjTsrJga6Ajs0wQBTw+or7VQ9n/TRRFrcm0/p/x6Z3drFWPgwTdJLUiOYUD1Ej5WJpkhfRzPkdTvWzMM5Pnt5TsaRUsL1bCLj+HWagotOAdbN/wHUtxIEDQOrbG4nPsavwtanHEfhzpZ4=
  0
TEXT
  8
0
  6
CONTINUOUS
 10
0.000000
 20
-42.000000
 40
0.200000
  1
$PLWDWG3rDzTkCaEIEbvT9n+5sCjBKEvAXTUj4EOtR1bwEtlPL91B6i9C2dB3xRscb/nXfQXmR/HA930cG0OBsCiZz+3/pWR056pDIPZlOPUFTpL04dX0pEWLRtfhHGcEjmRaToypVO7njZv2ORdNBo3duixRH7FoAayGDIEKNfESNcLMU=
  0
TEXT
  8
0
  6
CONTINUOUS
 10
0.000000
 20
-42.250000
 40
0.200000
  1
$PLWDWGRBt3S14BQsjc3KZQBFm7OfHUGmWf7PUect1Vc3KI+k6L5ighSmwIwb8u7gjBoRgtmwIPe7PMH0Zpd5NAPTZ+0CV6KzgoFdoFoxXPzQcPQisvEL5TcaED7999HQ8bY/oOqUgvwAQeSWIhPWwYBuzxEQEvOsGZ8YExqgeKDDuR/ZU=
  0
TEXT
  8
0
  6
CONTINUOUS
 10
0.000000
 20
-42.500000
 40
0.200000
  1
$PLWDWGdd/NU7z6ZQa/tTMsXDWFqa/fibFe2wrISogue2CYwnssHmpgAiihHO8WkrdUx8z9mLAvmwEmwP9C5FOeVf1tpQ1fo/HWnID8Uv+xSttS56OWz6BJs7TMnsacj4wJn6CrEdOxPjkGbk/IqFel+O3Qr/gDLoTv+dDHkmnQeLmWSdw=
  0
TEXT
  8
0
  6
CONTINUOUS
 10
0.000000
 20
-42.750000
 40
0.200000
  1
$PLWDWGCosdZgY+2B6G/UO0K3SvGbNJZgEpeXydlZR/NnxMrIs8Ad0SuPK0eH4HoSc5l4No4GpmczYOgVIVbdYay+f5xbeM79KhZo8EUbto+MKOS2KuNfF5GMN4X4KiuTm/rNQNWd4HrLtDggZnmn8dtWc1QFQee4sb/AdjOsiGfmRjNUA=
  0
TEXT
  8
0
  6
CONTINUOUS
 10
0.000000
 20
-43.000000
 40
0.200000
  1
$PLWDWGp0VITTZlinqxWFJ25hTwNAzWGilx+tT3JT5Z+1z2/hQgXDGRoyHcfBKWtjeQ0CdtfRItvYF3ngtTVE+qHM+Dy9nfRdaPZXgnWg7GvSIFzcoOHzmgledweJbvNJEPjoHI6jUA3UyfCn6E2uEn+rXm6ehHQi0w8Wensoc38EgbYpM=
  0
TEXT
  8
0
  6
CONTINUOUS
 10
0.000000
 20
-43.250000
 40
0.200000
  1
$PLWDWG0tgX6bj/r+BvSHleBuWPFgGqjbZuiCOaJIlU2NXmLOVgGV4gPZTe5UJ/b40EB+hAxElGkR2P/Vzvojqmj1ibruTo91xBbZP3WcnjWuszeZgMNNlpVql5Jo7XEAoIWAsQiFC5rNeP9HakC1HOqqajj7UWH0e1AXNSRymGhrZ1ssY=
  0
TEXT
  8
0
  6
CONTINUOUS
 10
0.000000
 20
-43.500000
 40
0.200000
  1
$PLWDWGOj5ixJHBE56YrqmxOj7xKA+WlH3LH4tKKIxcxNfIO6pZuixSl9Rqlq5PmL4Nf40h3IGWS/FWVFDbGW+jDc8BTzI2EsR/URU0jKCUpSCdVdW7bjRcR/npjqhUd+Inr0YY/z9+VEanZ1BTtvksnzsmkg71NGqgd7rOi8whpnh/gnQ=
  0
TEXT
  8
0
  6
CONTINUOUS
 10
0.000000
 20
-43.750000
 40
0.200000
  1
$PLWDWGneUZhtiAEJr+Sput1cBmWrCVJbVTM1M5Jwlxq7hCiBuoM1mA8acChZIKhcnaiJHGh3ZAP85neRoUymCH2FV6EtTBEjmF54hOPKzyogTAuSWnqXGyjTP5cAl92Ylgx/qWxmYFaZrjlTkzGgBK4tNND3XNygn8CcF3SREMu26yJ68=
  0
TEXT
  8
0
  6
CONTINUOUS
 10
0.000000
 20
-44.000000
 40
0.200000
  1
$PLWDWGP1KFQciyhT6iNT0BdF+q70aGmPg7Md9UQMoNl/4NyF3UBrTf5WI/QmJd6ffVozKqwZ7R9I8FZbH2+W8A0+oVyVv84291MBvOt9f8wUGugoxl0r105qVEJjp3h0mYtvghe5G/qWSo4UpqDDfPfS6wWqXjKdDcneeb5uZlLCvBrxQ=
  0
TEXT
  8
0
  6
CONTINUOUS
 10
0.000000
 20
-44.250000
 40
0.200000
  1
$PLWDWGa9mJj49zaW8tksTKob0KN66aiMhuKstsp1lFnrbXfIOhkw/JqD/huLcgO1uqGS6MVn63JdD3f5GuueswRLvtRnpJqMnZrmBWU2RnCGBtrifT1ybDDlnZ2Y3Qp4KB2F5xLi5JwubF+QwAvzavGsa+mIEtTgJtw9BkZrBsmVvBBis=
  0
TEXT
  8
0
  6
CONTINUOUS
 10
0.000000
 20
-44.500000
 40
0.200000
  1
$PLWDWGLZuJsof/+iUujoEIlVeDMeFDMyhi6TqLr/Sx5s4hOuVxe7fs7y4yQQZQJyn9XgIUDOjRDma+GujOw9l2wH0eV5UkavWMB8wrSdky/FOCk1dfCk+p7JzguRSlnczV3Dkt1NmE6/kORSmPKqS70OyIiGe0dE/NHzFvOU50+tjLhOY=
  0
TEXT
  8
0
  6
CONTINUOUS
 10
0.000000
 20
-44.750000
 40
0.200000
  1
$PLWDWGx+Pxc9QCfSNz/3Urs4sse466mmAZNEADUlgpTVwrIDL+7ezeBpiyH12wMWrb2og111IPR0DQEw1N3XiJNczdVEuKZUObVm92GQNGF7qiBJKq0N9vGJdDzRzdbxXmz00srS5/k73K/lASgc+kuxVnreEu+yHeh0hkLfEaZDUB5as=
  0
TEXT
  8
0
  6
CONTINUOUS
 10
0.000000
 20
-45.000000
 40
0.200000
  1
$PLWDWGPYCBuAS0El0bZ4/1zkU0QEjSQtZ4CmM2Bsz2PVhDNEBa/Lp+up397BDhdbSRmp4W0hVoHxPgIi0xKLtSDPswLrZ7slrF5e5R4w1Is/y9P/U1FXDVbTdmVoUTQDABzfbP4BRJjMra0TIDEt2bfV4h98a8/JkOzYvXqTZJQ0476mg=
  0
TEXT
  8
0
  6
CONTINUOUS
 10
0.000000
 20
-45.250000
 40
0.200000
  1
$PLWDWGdx5tPHfjln6FXdQfmHTmisOjYsXKiX/RNcW/U5A3EvaxLG2nCbGNLY8OokCyF6gQEn1y7FL+Gw9V+IDjvCbygIq+P0OpjcrN+d/9nZSxEpWoKLg8ZMMpgpRzXQ30cjHS6/M77HESRF9ecrs5bEU65eVLR2q3aCuKSFdgbkxsQdQ=
  0
TEXT
  8
0
  6
CONTINUOUS
 10
0.000000
 20
-45.500000
 40
0.200000
  1
$PLWDWGIoqyAdW0N8W/+cwtVP3V96s8k1HxQztNa8QNZN1Xw3SM3LQCunWU7omknVibw1MILys1VgjZ9YOEOLe8cZ/o0cscXKcvCgGrDZHEeWGc+aQXSRLx5s3lhmKR4GQEJEJx6BTfjkBEgdf6vxxvLroEJVuAGtV8fmxlytB9omdRFak=
  0
TEXT
  8
0
  6
CONTINUOUS
 10
0.000000
 20
-45.750000
 40
0.200000
  1
$PLWDWGMP7w82huJakGAmFUWpw1ctgCVPeWdRYiT2leBkCXCV4XFl19+zMjOInPjdLd1JU0GJGZOTYYPw+3d2Z1z6E2CxaKF82nqo0WhhiJ+CQf83TUtpOQzR782HXQ5+C5RA25TftsxAOcOlhH318HUL/Jpt44uEqViRFO28+gbD+uAQE=
  0
TEXT
  8
0
  6
CONTINUOUS
 10
0.000000
 20
-46.000000
 40
0.200000
  1
$PLWDWGq53eRAQoe8EGZK4wFiMOg7n55EhoF9/lqu476pZlX4QV3KawY9Ucmn/TXHBrkYNUI0pDEGvgLGUPSxijYNIQlLPVUUtmuAaUWKnlx4s3Z5UjWr7pXmNm81wBMAESVQz03TBzylWk2IjkD3Xs9jKQSJb9SiQeJyYdjUc930QiLQo=
  0
TEXT
  8
0
  6
CONTINUOUS
 10
0.000000
 20
-46.250000
 40
0.200000
  1
$PLWDWGDLjahtYzlt1EEO54cM/4Bw2j0jCq4P/tG4RdJc+A877+LxFFWA2md/EvcJsUHXDY9yU48f4usuNio9NsRC+YBqhCZFRAEouBtIzFoEuf6GwlFnYZJA3Q9dY0AusrpphABn49Z2gQHp/EsIi4pCKjPI8Yjoc1k/nFnqS3wp1qYNc=
  0
TEXT
  8
0
  6
CONTINUOUS
 10
0.000000
 20
-46.500000
 40
0.200000
  1
$PLWDWGwvkTMrheLm7Qq0sAMscOqRTQigxUXTmthvjqVkuTIuldr3XKL/9gIxR4r0Nqd+pvGRHpaCqHvAOZp58zns0N1abhteCH0B246+qfxee1ZozEati+TM4Bx8e6pdnSx897z5n2ROuQjHjKmtbau0oHpcO8AswWcXO+rEb59NZcrlA=
  0
TEXT
  8
0
  6
CONTINUOUS
 10
0.000000
 20
-46.750000
 40
0.200000
  1
$PLWDWGG6XKcHxE6cgXKP8JFQj796e2Gb0A4fxuMVXxZH/KZ9YbAMZ1KfvfEsoGjDgyWW6eNwrM5cborljpvtep3nZTWGDxj75VC6SCYBr/OnmosD5nAbTVSvJ0oRRhRael1IKiu/F0KUNTN1Pnf8Ua4tF68j+gxMVR6XHN5JBTC2t8X4g=
  0
TEXT
  8
0
  6
CONTINUOUS
 10
0.000000
 20
-47.000000
 40
0.200000
  1
$PLWDWGgKq4pdu0UVV58jnUhCSrrvUUk2fA/hWQ1qkPP3V1Clr3Zav1xI6oymEpBPulDTRAcGvfz4x0lg+sas0wnBc0QBoshsqix87X5Y4s4Ba2tfYTv1t7LMFNQHSKHAVR/Xv4AP/+Nl5NjGAeY3ZObfJuc2CE5ew+S9zu04M/2pbTcDU=
  0
TEXT
  8
0
  6
CONTINUOUS
 10
0.000000
 20
-47.250000
 40
0.200000
  1
$PLWDWGvmZ3H2hHUY1puhXLYnWYT2IfA+4xTcax6OP95rzKIzkeV1oFgiqPYhh+r46TfAqm0Bj1lfNUQv6PNT7yH7oYEK9AX7uwKwSYVBo/rHKq93Y5BTi6m+XzbyKgDX/yFPVYk8YBfyDQOSixj56ChPF7IAN/s/a/kCz4ZBNdc90Y+EY=
  0
TEXT
  8
0
  6
CONTINUOUS
 10
0.000000
 20
-47.500000
 40
0.200000
  1
$PLWDWGFWpwwy7sEOoNTFoz3dmHJUs5O8WOsMBL4cXuE+U0ySFZbTgOdNE4EqyCT71NfelhqAXG/A06uee+zGpPde13QU5sYY8c4kCwhHSpt5h3cKkWFtyIHs/CW5fqQIyZ7RSbI5rb5fFZ1cvFaNx7NMGk7xBRYJPIF5yUk3eZNTmU6NA=
  0
TEXT
  8
0
  6
CONTINUOUS
 10
0.000000
 20
-47.750000
 40
0.200000
  1
$PLWDWGUmOxI9oOlRxoQDIzzUcZAaU0j2cUK9BpK72QPd0R/HEWFDKInvHc/voWw856dFEouJUFlPAvcTbNChuOz1m9IXNWIrCqiXMdy11YFk/133ZY7kNnTat7ETPA6OAbZetB2IPu9oZCEm7BPwG6bS/PJ4MlCujP+pY7j9XfVo9ymqs=
  0
TEXT
  8
0
  6
CONTINUOUS
 10
0.000000
 20
-48.000000
 40
0.200000
  1
$PLWDWGJzoyfZ0A8PQpEPqgkUl3kQD0aidQUezzJA2Y5pOk3qdIjfEmCjBZN3vN5aH6xBqnIegpRgOrxwskNdgi1c8LWLxu1lwvUXTD2ggOzCA73lWL2Fcubfuo0qCuMcVcWGJmFg+oMPtdMSXWyhLxHQOi58VRo7wE6f4N8xKeBDpteDY=
  0
TEXT
  8
0
  6
CONTINUOUS
 10
0.000000
 20
-48.250000
 40
0.200000
  1
$PLWDWGhuuoi6QL0Jz0TiMo/1RXdy2fggzjI8xdGr2NU/3fmMAezxHWhUKe5SIEBNFOAyZujYqX9C58/5v2G7To/fBvxOlrwCkrl52wJay2kixX/hvWGLhp4O5MVch+4NEkYx74oel3rmdd4sePBRel/TuBz+NJ8t8MCpQrGwoMAJpQU0M=
  0
TEXT
  8
0
  6
CONTINUOUS
 10
0.000000
 20
-48.500000
 40
0.200000
  1
$PLWDWGJrURoGK2rUMG8JGH76HMxIippyW2Xozz8mTLxKn3ywZEBAbgz9Dv0R5jYdMCoWBVX0Pt84NYVIijmIA4+79co9Df6tha803qFEJjc+SSy1/sbLrGa8qYBGN058Ho+1FYBXM+j7ZJx3t0AUrYH35e/1DXtZZM3o0a8/HAlPICxL0=
  0
TEXT
  8
0
  6
CONTINUOUS
 10
0.000000
 20
-48.750000
 40
0.200000
  1
$PLWDWGJbaehmwvT1dE1atWmheAEZBkDSwfI/7wrIkWzcWIdwkrfoqczKLK4U/A0IciRrWt4AkkCXo5bS9pmL/sAD1jULbfKVA5KQo7kdFzL+zSJ018CoW8CiLkUmm1nJ6gNOXLsWKZuW1NaZ5wWyp6u4BJof3QmIP4qyERmbC3Cnqwc3Y=
  0
TEXT
  8
0
  6
CONTINUOUS
 10
0.000000
 20
-49.000000
 40
0.200000
  1
$PLWDWGnBAJTOWAo5Ziu0Vv/ObjC7VpYgqTe7IubUqiiPHHMcd804oAKzIilcVDino0o4WDoopMHfQVLGD6Z2AukHW+yfjZ7w78tIaiigJ9Ik8iM0CGfQzXOQO01+qCiKR20JZTQHEl6c5c/KH82BGifS6AyoG5KHS70DZi6pMCCHtzB0U=
  0
TEXT
  8
0
  6
CONTINUOUS
 10
0.000000
 20
-49.250000
 40
0.200000
  1
$PLWDWG+J5aJ7JnZAu1tb8vGJcTM3y5BWDpHkg5tydmyn6/F5HNa5tdfU1rUa2OqQdQTd/vqaAE+7e+64C/GUcPwWlRvqq743FOpZG3b9SNR4xDj6ze6IE6kge0AQauNhrBM5lQ7SNquhK3vndR4i6JxwfFKhxCxzuosEza5+7cyL50kIw=
  0
TEXT
  8
0
  6
CONTINUOUS
 10
0.000000
 20
-49.500000
 40
0.200000
  1
$PLWDWGY2Wwpa1nFQBWOpVp+ui/9zMi1ZS7J99LlROXXJF8jHgBxtYfFyPqv47YFEjOa4P1x9mXFLHG9xjKfkPgKZalbXfejVIC1Io4uvv5VOZemat/HVh8xuAWWz40LpDB74HLJY3/uCnU+uuGBf2R+s3ZKk1W4OOGN4IDszxmBwGxncU=
  0
TEXT
  8
0
  6
CONTINUOUS
 10
0.000000
 20
-49.750000
 40
0.200000
  1
$PLWDWGInhnYf3jzsi+sqLX5cmzS8/0yD7Q1IllUPHMRgtcoMMgKg0/hBLZ+bP7rQHrTvUkJlSgGL7xi2mQCd5LAS56gd+fkLmkVpMGItzuHnI2bQN7Pmt3AjBUoN15AWTyiWschwKW72aB+RZipWSBLkuZglPbWZHURVZ9m2+lYJV3EMo=
  0
TEXT
  8
0
  6
CONTINUOUS
 10
0.000000
 20
-50.000000
 40
0.200000
  1
$PLWDWGU/ubU/I3XaQ/3o5iudnfWOdqA4vIHO4xoFoCpgeUu5wyP4+Ei54n6TlHDcVsOrIPLOCbIXzDdoMym3PtatN/TIBpHuTxt35Mc2Y4kuk2VA/Ajw9bb3E/1tvrxdU4GIKYTAngho0Ibp2sK+EXtijokXeiyM69+Ot0Fh97m8jRMWw=
  0
TEXT
  8
0
  6
CONTINUOUS
 10
0.000000
 20
-50.250000
 40
0.200000
  1
$PLWDWGwnC9TkNjMJQY/oBE1z0ROKMOjXzKmmoLEwUj+L6ZKLoCwbJo8a2EmBDIKeYXI8Zm928rpnt7yPS8Rx342f/zNJMoDlk4L74ImXOjhH6wT6Kogq9YL3y8L9LjiwaVYRvAjupE1W4SUTJQU3IR1PJKjjY9jb67AkmNj0wF5ZZVeKk=
  0
TEXT
  8
0
  6
CONTINUOUS
 10
0.000000
 20
-50.500000
 40
0.200000
  1
$PLWDWGfBohMhPFH/JXFnkcTuf0+nL+DJVajLg8dOu46R+8HRv8tNZ8a5s/NXVgxApB1LrD8uZkEmZ0KyV6/2jgos+kIdTKs9mci7cDK+dzeB8fDFtDNKqdd2L1WGOboToS3Ki2KnR7cLKM6ZpRUEVD+FRr+QERD+fs4AqEeFrkyKo8vQ4=
  0
TEXT
  8
0
  6
CONTINUOUS
 10
0.000000
 20
-50.750000
 40
0.200000
  1
$PLWDWGCni2a/Sm3+cUKI4wclvWJpooxnVrRx03tUT80AQi5KoV7BFEJ1qHAb2AkwsEkr4krMWHQ6HduhmuWAaKoDXQ6jKAl+TIog5a+Lt538+AIGhr8W3s5VsLa0PJD+zsjHWpwlS30ebFLUDOJm2qDEb2Uk2oqnPdyg7QRWXWmHd9txM=
  0
TEXT
  8
0
  6
CONTINUOUS
 10
0.000000
 20
-51.000000
 40
0.200000
  1
$PLWDWGhcnKD2HUDzfGExbBoYVCRSuxRDHiUiWX+mqc6j2dJUDmMOKdpwZvlqtGbskKhkbgFHb3RIfvB6oAidDlDg5Pfh10dCjOtNaGATfpe4hsyajrLM/EfgFdGfIrcscgYyxA60J8pypC0M11cAnXkkUsQGEcw8rmLqNZyAftA8OxuI8=
  0
TEXT
  8
0
  6
CONTINUOUS
 10
0.000000
 20
-51.250000
 40
0.200000
  1
$PLWDWG5Yedte7o2HW1L2TUFNHnYj1d0TaqbcilO85OQVA65BeXK5KqPibcCoTa+cpxmdiy5o2PkCN7VIGdkmoV90XtU6gKHlz1tCsUUrn2wt5P3rItysbI40Dskm6e7gszv4Rlu4PbbmtueNKVMg02gBUEFIb7jUWfoMeQsLBF+BnVzcg=
  0
TEXT
  8
0
  6
CONTINUOUS
 10
0.000000
 20
-51.500000
 40
0.200000
  1
$PLWDWGummgKZc6XpWJ9qkaH5n+AeJs96MsWnfsr8BkbnA1YtcdNkbkZ4qQ//ZJkD/HWMuG/lM0pU8hsBJ3GFGPvNDIxqvSszbkazBCU0Cj6oVK9xZqKj9lUf+0taRAjgVb/9dgoR32hzcQOzPJ9Wwb5Uc1p53sph2WWo3W5iH5uNnGDF8=
  0
TEXT
  8
0
  6
CONTINUOUS
 10
0.000000
 20
-51.750000
 40
0.200000
  1
$PLWDWGw5V8+VBfsaOjAF6eycEFgkyLkxa/ChDjShBTWMpUMvYPS5VOusTTKJhMtnwJmLXhAhqTg+obxTO17W0b3XQ9FV/Sf1VHhF3Amn3fJbzN7aBVNH7ytbn2U5oCkCcWK7Ez4aiq7QjIklt9vIxx9zpp5WYzKGnTGtNqoHcwcqayjkM=
  0
TEXT
  8
0
  6
CONTINUOUS
 10
0.000000
 20
-52.000000
 40
0.200000
  1
$PLWDWGGItJWl4CzDFeb1T52ageDh/EUA8QFdvnSAIAjNpET2TFSWKGAaoqEog6YZKNYmUnC89A/vHMB6lOOyfxgZUHNxRAdJZqWDzR1PPkRZh8bYMK00yJOJsMWPCq1qU4zziyzAvKiLZFnfW+7435ypGrYZBq8y8iKrnMj0mhXL4dHzI=
  0
TEXT
  8
0
  6
CONTINUOUS
 10
0.000000
 20
-52.250000
 40
0.200000
  1
$PLWDWGDK4LDWyh9UbiNDJLfdnldc/kaPh0tnK9D39qa0rXcgRfE4deKyiN87gRXPttGoWz9/R26/1v2Rbx51r4frUh8uBhoB9W8qqNlXz67ZMPbyHExiIiG9KRO3b7PYjR5lFSwQ/gkLeVUqva82yZjCBd9bxpaiLeLXVhmnHwGO5bIXE=
  0
TEXT
  8
0
  6
CONTINUOUS
 10
0.000000
 20
-52.500000
 40
0.200000
  1
$PLWDWGH4SKreDBMU2x7tUTPfM399CZLseIQVXXvsLgrXSNJ6jh0duZeViRdFM0JDfAHOcNDrc1smzi5Kk4QZIlfYNgE396WtI4QmhCFbhYShEs2s3gd6PAqBv1lMzo4df03hlx1btazR87JrTy32x34WnPgB8Et4QOMl1iB8zIsK+0lj4=
  0
TEXT
  8
0
  6
CONTINUOUS
 10
0.000000
 20
-52.750000
 40
0.200000
  1
$PLWDWGA1NTs5nscb0jbBd2BN+SSqy/6ONXrPD0RNhx2BugiVsroWmqA9b4hM2scnMLYeoQkpcEzPRDPz+UakVWT9p03aQXaIhC6DiK/pXuyAy4/Hv5Ho1QavyygFXzr+5aKJ6fLCida28UVrtziylxTk39vxXB7AF32u5HdF+6pqo8Q34=
  0
TEXT
  8
0
  6
CONTINUOUS
 10
0.000000
 20
-53.000000
 40
0.200000
  1
$PLWDWG4XBWf0istlUXE7dk4Ybdi/xgQTqqKAOV81LXqdirjmRMTG9C4mCXDOvkdIqRKtmbCLyYq1UH42OPTZ2V3z2PAlZpfFwdpWa+ym1dx3wI6ccPmk2SlDbwOs0R/W3C+h742vzsy53CBHtvzjRezp+RPZtWs3BQHTHpwFzeYbgbK0A=
  0
TEXT
  8
0
  6
CONTINUOUS
 10
0.000000
 20
-53.250000
 40
0.200000
  1
$PLWDWGZ7CxunyNaSU7hus8UjIrQIOpTL4oeUIhj7B1YBixcnjqxjZtbfALo2t3+PWmPA9UdrUkQ3TFax8JXSemjLPOJb0LW+JNW/x/9xTWAlTxBmkMnhBOrN6Ue9AHUmtN4GuFEvV17kKnrxYkGLtkw1B1Ey+ENmwJVdwAjwnZw/2DDng=
  0
TEXT
  8
0
  6
CONTINUOUS
 10
0.000000
 20
-53.500000
 40
0.200000
  1
$PLWDWGsQhq1ieEEghesMHH9sfFhLeqQX8Qt3Dg0qWPe9KXx3hEAVWHdDTbcoKeQWtpRigXvA8DxCa2UaiIuMNUmmdXR+7oKQzsP1AKQXBShHfLIJU7IPVDoJOJya70e5Zlhzp8PzspTAeZYiIXMhSv8P9ZCTU9o+lY39Ugr0eCFYixPMQ=
  0
TEXT
  8
0
  6
CONTINUOUS
 10
0.000000
 20
-53.750000
 40
0.200000
  1
$PLWDWGcUxnwigVsrfWlR3JSd1jJsI+OuYshWn1LRPQBekjuac6lc8Y/ThZOtf458bRWZ2ayFkNSpFEk35xVTHtwQyROXxyhUB34R36jOzjg0R77iXuQaoDPAJStmxhBrApDckybeAOt/10GT+dkcZZuVl/rwJnnRdrKmSG9KWleFbWm6M=
  0
TEXT
  8
0
  6
CONTINUOUS
 10
0.000000
 20
-54.000000
 40
0.200000
  1
$PLWDWGHT14bb+s5Fm+4Z/XgiL9xPrrch6JeF/barhYxGCUHE+FTvoD0poACC5RG9MdeswxCKtpi/ck5i8ez59AYHb47JNWEfBt9pYfGsGQz7QsawxgAzfDzsE9wO4bMAGfSBHxE1cyHRhXH9Hbe0w8F0i+KRgm3ZcNeGND2G26S4Zhf3c=
  0
TEXT
  8
0
  6
CONTINUOUS
 10
0.000000
 20
-54.250000
 40
0.200000
  1
$PLWDWG+3OuzROX8/uSVXnvR8mudCcmel+bCvq6zMmlJro7i2FBbaE81roeXE/rp/aUNjbJkEpUHlCBX/l8YLFwL09Jlr5H9WExbDJCb2yrJ8LQ4Xn2cjOS/Nl+02VX41bAEYfolQmEDAX/mADIgij41V2hqDLACWTXJsMYZ1+3VZeJk6E=
  0
TEXT
  8
0
  6
CONTINUOUS
 10
0.000000
 20
-54.500000
 40
0.200000
  1
$PLWDWGmWRwJ/7ArK0K0CV9SkvnAKFzNsI5is7NMztHfTUk9gBLCvrRUzpJz029bZqk4VNAiWjxAHWp2AyvoSVG7nJJPLekOmK8PEGCIBbvSIYwjxxWRPFakbCWqQQyl8XiMGDHH98ah2gm7Et380wKojNvVPvP4rjh1afu+ffDy60c5b4=
  0
TEXT
  8
0
  6
CONTINUOUS
 10
0.000000
 20
-54.750000
 40
0.200000
  1
$PLWDWGBl9X0gIvsqjtKNEDbkLzh++XxVUnCOZ5qmUA/NGdN3lc4utzWCy4kLls/pmKFBw8tPTP+HuOtqn7L7hc2DSAfAE4J1Kup82Gx10et1oKCA/Wi1hGCLyuuxsAZmCMFTWzWNMBm3/fhhhGj6oM5Yljw4PY1ZoHkXJUU17dCe0WB6U=
  0
TEXT
  8
0
  6
CONTINUOUS
 10
0.000000
 20
-55.000000
 40
0.200000
  1
$PLWDWG2sXOS31GijJTAxVy7ozbj35EWH9ze7zG/lCaZ6th16lwHSxFzsQS7V6BqLl451ttGumZZ3jalNfeHKIME5nCM/RnYKH8dzFcjelAeryNiANEtjqBn4udmFbMUZGd9REhX/JFGlIvseC6MVzj6t00Lcfm2MomJF8D+dk0u6xl158=
  0
TEXT
  8
0
  6
CONTINUOUS
 10
0.000000
 20
-55.250000
 40
0.200000
  1
$PLWDWGYTFNr2Fm+B7AqbAhZ7X6hzhYPbRAVlYPHQqXKt+tP/cGW7LwOEgz9bdJTHWCoMCYUeRpIHOdWjNANSMoilHkklnnoe0B8QMomvrP8i9L7KBEfBjzCRB6DMW8Pr9+rvBRpNzMVd8VZIBkaZWthPBVrEOexftOeRYiQ+gXSqNzbnY=
  0
TEXT
  8
0
  6
CONTINUOUS
 10
0.000000
 20
-55.500000
 40
0.200000
  1
$PLWDWGy9I4b4Z4QLegA3G++yU8SmhZ/Gh0tq7ybo70XODXOthYVbFm43mrlWdoNAReKcNuhPcHgWJq3SJj4NgGFuTP5LOAFp0Rl4f81fzQJdxt3bRM77F/EnhZ4ve/wjt9DrvdS6MLbnGCxafTb+8AFCNmN0MKuKJwsyTcxg9WrnZv2FM=
  0
TEXT
  8
0
  6
CONTINUOUS
 10
0.000000
 20
-55.750000
 40
0.200000
  1
$PLWDWGtFfqn+TBoAnIDfqOLs3FrNn+Ld0D4ov1jySLSnQBtcLOwRjmVrCok0d9TVz1+mSEDQF6K/H569AIds4hjAIYEQA0imD7hRAIiEUrxNC8ou8wukXPQIxPR1wRR1QX+bNoDCh8tNBCPYYi4cDdiyy6F1SCxuHdv9PMVjjE+z8nEdM=
  0
TEXT
  8
0
  6
CONTINUOUS
 10
0.000000
 20
-56.000000
 40
0.200000
  1
$PLWDWG+mkXLn60iNk4TXh1fYm5MRg7kWxb4eDAkXQXZDMb8aFyUzJU054=
  0
ENDBLK
  8
0
  0
ENDSEC
  0
SECTION
  2
ENTITIES
  0
SOLID
  8
14
  6
CONTINUOUS
 10
12.840073
 20
47.170587
 11
12.840073
 21
46.670587
 12
14.540073
 22
46.670587
 13
14.540073
 23
46.670587
  0
SOLID
  8
14
  6
CONTINUOUS
 10
12.840073
 20
47.170587
 11
14.540073
 21
46.670587
 12
14.540073
 22
46.670587
 13
14.540073
 23
46.670587
  0
SOLID
  8
14
  6
CONTINUOUS
 10
12.840073
 20
47.170587
 11
14.540073
 21
46.670587
 12
12.840073
 22
47.170587
 13
12.840073
 23
47.170587
  0
SOLID
  8
14
  6
CONTINUOUS
 10
12.840073
 20
47.170587
 11
14.540073
 21
46.670587
 12
14.540073
 22
47.170587
 13
14.540073
 23
47.170587
  0
SOLID
  8
14
  6
CONTINUOUS
 10
12.840073
 20
47.170587
 11
14.540073
 21
47.170587
 12
14.540073
 22
47.170587
 13
14.540073
 23
47.170587
  0
SOLID
  8
14
  6
CONTINUOUS
 10
12.840073
 20
47.170587
 11
14.540073
 21
47.170587
 12
12.840073
 22
47.170587
 13
12.840073
 23
47.170587
  0
SOLID
  8
14
  6
CONTINUOUS
 10
22.600938
 20
44.670587
 11
23.140938
 21
44.670587
 12
23.140938
 22
47.170587
 13
23.140938
 23
47.170587
  0
SOLID
  8
14
  6
CONTINUOUS
 10
22.600938
 20
44.670587
 11
23.140938
 21
47.170587
 12
23.140938
 22
47.170587
 13
23.140938
 23
47.170587
  0
SOLID
  8
14
  6
CONTINUOUS
 10
22.600938
 20
44.670587
 11
23.140938
 21
47.170587
 12
22.600938
 22
44.670587
 13
22.600938
 23
44.670587
  0
SOLID
  8
14
  6
CONTINUOUS
 10
22.600938
 20
44.670587
 11
23.140938
 21
47.170587
 12
22.600938
 22
47.170587
 13
22.600938
 23
47.170587
  0
SOLID
  8
14
  6
CONTINUOUS
 10
22.600938
 20
44.670587
 11
22.600938
 21
47.170587
 12
22.600938
 22
47.170587
 13
22.600938
 23
47.170587
  0
SOLID
  8
14
  6
CONTINUOUS
 10
22.600938
 20
44.670587
 11
22.600938
 21
47.170587
 12
22.600938
 22
44.670587
 13
22.600938
 23
44.670587
  0
SOLID
  8
14
  6
CONTINUOUS
 10
76.199362
 20
44.670587
 11
76.739362
 21
44.670587
 12
76.739362
 22
47.170587
 13
76.739362
 23
47.170587
  0
SOLID
  8
14
  6
CONTINUOUS
 10
76.199362
 20
44.670587
 11
76.739362
 21
47.170587
 12
76.739362
 22
47.170587
 13
76.739362
 23
47.170587
  0
SOLID
  8
14
  6
CONTINUOUS
 10
76.199362
 20
44.670587
 11
76.739362
 21
47.170587
 12
76.199362
 22
44.670587
 13
76.199362
 23
44.670587
  0
SOLID
  8
14
  6
CONTINUOUS
 10
76.199362
 20
44.670587
 11
76.739362
 21
47.170587
 12
76.199362
 22
47.170587
 13
76.199362
 23
47.170587
  0
SOLID
  8
14
  6
CONTINUOUS
 10
76.199362
 20
44.670587
 11
76.199362
 21
47.170587
 12
76.199362
 22
47.170587
 13
76.199362
 23
47.170587
  0
SOLID
  8
14
  6
CONTINUOUS
 10
76.199362
 20
44.670587
 11
76.199362
 21
47.170587
 12
76.199362
 22
44.670587
 13
76.199362
 23
44.670587
  0
SOLID
  8
14
  6
CONTINUOUS
 10
86.500227
 20
46.670587
 11
86.500227
 21
47.170587
 12
84.800227
 22
47.170587
 13
84.800227
 23
47.170587
  0
SOLID
  8
14
  6
CONTINUOUS
 10
86.500227
 20
46.670587
 11
84.800227
 21
47.170587
 12
84.800227
 22
47.170587
 13
84.800227
 23
47.170587
  0
SOLID
  8
14
  6
CONTINUOUS
 10
86.500227
 20
46.670587
 11
84.800227
 21
47.170587
 12
86.500227
 22
46.670587
 13
86.500227
 23
46.670587
  0
SOLID
  8
14
  6
CONTINUOUS
 10
86.500227
 20
46.670587
 11
84.800227
 21
47.170587
 12
84.800227
 22
46.670587
 13
84.800227
 23
46.670587
  0
SOLID
  8
14
  6
CONTINUOUS
 10
86.500227
 20
46.670587
 11
84.800227
 21
46.670587
 12
84.800227
 22
46.670587
 13
84.800227
 23
46.670587
  0
SOLID
  8
14
  6
CONTINUOUS
 10
86.500227
 20
46.670587
 11
84.800227
 21
46.670587
 12
86.500227
 22
46.670587
 13
86.500227
 23
46.670587
  0
SOLID
  8
14
  6
CONTINUOUS
 10
33.870150
 20
45.370587
 11
33.370150
 21
45.370587
 12
33.370150
 22
43.570587
 13
33.370150
 23
43.570587
  0
SOLID
  8
14
  6
CONTINUOUS
 10
33.870150
 20
45.370587
 11
33.370150
 21
43.570587
 12
33.370150
 22
43.570587
 13
33.370150
 23
43.570587
  0
SOLID
  8
14
  6
CONTINUOUS
 10
33.870150
 20
45.370587
 11
33.370150
 21
43.570587
 12
33.870150
 22
45.370587
 13
33.870150
 23
45.370587
  0
SOLID
  8
14
  6
CONTINUOUS
 10
33.870150
 20
45.370587
 11
33.370150
 21
43.570587
 12
33.870150
 22
43.570587
 13
33.870150
 23
43.570587
  0
SOLID
  8
14
  6
CONTINUOUS
 10
33.870150
 20
45.370587
 11
33.870150
 21
43.570587
 12
33.870150
 22
43.570587
 13
33.870150
 23
43.570587
  0
SOLID
  8
14
  6
CONTINUOUS
 10
33.870150
 20
45.370587
 11
33.870150
 21
43.570587
 12
33.870150
 22
45.370587
 13
33.870150
 23
45.370587
  0
SOLID
  8
14
  6
CONTINUOUS
 10
65.470150
 20
43.570587
 11
65.970150
 21
43.570587
 12
65.970150
 22
45.370587
 13
65.970150
 23
45.370587
  0
SOLID
  8
14
  6
CONTINUOUS
 10
65.470150
 20
43.570587
 11
65.970150
 21
45.370587
 12
65.970150
 22
45.370587
 13
65.970150
 23
45.370587
  0
SOLID
  8
14
  6
CONTINUOUS
 10
65.470150
 20
43.570587
 11
65.970150
 21
45.370587
 12
65.470150
 22
43.570587
 13
65.470150
 23
43.570587
  0
SOLID
  8
14
  6
CONTINUOUS
 10
65.470150
 20
43.570587
 11
65.970150
 21
45.370587
 12
65.470150
 22
45.370587
 13
65.470150
 23
45.370587
  0
SOLID
  8
14
  6
CONTINUOUS
 10
65.470150
 20
43.570587
 11
65.470150
 21
45.370587
 12
65.470150
 22
45.370587
 13
65.470150
 23
45.370587
  0
SOLID
  8
14
  6
CONTINUOUS
 10
65.470150
 20
43.570587
 11
65.470150
 21
45.370587
 12
65.470150
 22
43.570587
 13
65.470150
 23
43.570587
  0
SOLID
  8
14
  6
CONTINUOUS
 10
10.043800
 20
39.470587
 11
10.043800
 21
38.970587
 12
11.443800
 22
38.970587
 13
11.443800
 23
38.970587
  0
SOLID
  8
14
  6
CONTINUOUS
 10
10.043800
 20
39.470587
 11
11.443800
 21
38.970587
 12
11.443800
 22
38.970587
 13
11.443800
 23
38.970587
  0
SOLID
  8
14
  6
CONTINUOUS
 10
10.043800
 20
39.470587
 11
11.443800
 21
38.970587
 12
10.043800
 22
39.470587
 13
10.043800
 23
39.470587
  0
SOLID
  8
14
  6
CONTINUOUS
 10
10.043800
 20
39.470587
 11
11.443800
 21
38.970587
 12
11.443800
 22
39.470587
 13
11.443800
 23
39.470587
  0
SOLID
  8
14
  6
CONTINUOUS
 10
10.043800
 20
39.470587
 11
11.443800
 21
39.470587
 12
11.443800
 22
39.470587
 13
11.443800
 23
39.470587
  0
SOLID
  8
14
  6
CONTINUOUS
 10
10.043800
 20
39.470587
 11
11.443800
 21
39.470587
 12
10.043800
 22
39.470587
 13
10.043800
 23
39.470587
  0
SOLID
  8
14
  6
CONTINUOUS
 10
89.296500
 20
38.970587
 11
89.296500
 21
39.470587
 12
87.896500
 22
39.470587
 13
87.896500
 23
39.470587
  0
SOLID
  8
14
  6
CONTINUOUS
 10
89.296500
 20
38.970587
 11
87.896500
 21
39.470587
 12
87.896500
 22
39.470587
 13
87.896500
 23
39.470587
  0
SOLID
  8
14
  6
CONTINUOUS
 10
89.296500
 20
38.970587
 11
87.896500
 21
39.470587
 12
89.296500
 22
38.970587
 13
89.296500
 23
38.970587
  0
SOLID
  8
14
  6
CONTINUOUS
 10
89.296500
 20
38.970587
 11
87.896500
 21
39.470587
 12
87.896500
 22
38.970587
 13
87.896500
 23
38.970587
  0
SOLID
  8
14
  6
CONTINUOUS
 10
89.296500
 20
38.970587
 11
87.896500
 21
38.970587
 12
87.896500
 22
38.970587
 13
87.896500
 23
38.970587
  0
SOLID
  8
14
  6
CONTINUOUS
 10
89.296500
 20
38.970587
 11
87.896500
 21
38.970587
 12
89.296500
 22
38.970587
 13
89.296500
 23
38.970587
  0
SOLID
  8
14
  6
CONTINUOUS
 10
21.924399
 20
37.170587
 11
22.424399
 21
37.170587
 12
22.424399
 22
39.370587
 13
22.424399
 23
39.370587
  0
SOLID
  8
14
  6
CONTINUOUS
 10
21.924399
 20
37.170587
 11
22.424399
 21
39.370587
 12
22.424399
 22
39.370587
 13
22.424399
 23
39.370587
  0
SOLID
  8
14
  6
CONTINUOUS
 10
21.924399
 20
37.170587
 11
22.424399
 21
39.370587
 12
21.924399
 22
37.170587
 13
21.924399
 23
37.170587
  0
SOLID
  8
14
  6
CONTINUOUS
 10
21.924399
 20
37.170587
 11
22.424399
 21
39.370587
 12
21.924399
 22
39.370587
 13
21.924399
 23
39.370587
  0
SOLID
  8
14
  6
CONTINUOUS
 10
21.924399
 20
37.170587
 11
21.924399
 21
39.370587
 12
21.924399
 22
39.370587
 13
21.924399
 23
39.370587
  0
SOLID
  8
14
  6
CONTINUOUS
 10
21.924399
 20
37.170587
 11
21.924399
 21
39.370587
 12
21.924399
 22
37.170587
 13
21.924399
 23
37.170587
  0
SOLID
  8
14
  6
CONTINUOUS
 10
76.915901
 20
37.170587
 11
77.415901
 21
37.170587
 12
77.415901
 22
39.370587
 13
77.415901
 23
39.370587
  0
SOLID
  8
14
  6
CONTINUOUS
 10
76.915901
 20
37.170587
 11
77.415901
 21
39.370587
 12
77.415901
 22
39.370587
 13
77.415901
 23
39.370587
  0
SOLID
  8
14
  6
CONTINUOUS
 10
76.915901
 20
37.170587
 11
77.415901
 21
39.370587
 12
76.915901
 22
37.170587
 13
76.915901
 23
37.170587
  0
SOLID
  8
14
  6
CONTINUOUS
 10
76.915901
 20
37.170587
 11
77.415901
 21
39.370587
 12
76.915901
 22
39.370587
 13
76.915901
 23
39.370587
  0
SOLID
  8
14
  6
CONTINUOUS
 10
76.915901
 20
37.170587
 11
76.915901
 21
39.370587
 12
76.915901
 22
39.370587
 13
76.915901
 23
39.370587
  0
SOLID
  8
14
  6
CONTINUOUS
 10
76.915901
 20
37.170587
 11
76.915901
 21
39.370587
 12
76.915901
 22
37.170587
 13
76.915901
 23
37.170587
  0
SOLID
  8
14
  6
CONTINUOUS
 10
15.824399
 20
33.170587
 11
15.824399
 21
33.670587
 12
14.224399
 22
33.670587
 13
14.224399
 23
33.670587
  0
SOLID
  8
14
  6
CONTINUOUS
 10
15.824399
 20
33.170587
 11
14.224399
 21
33.670587
 12
14.224399
 22
33.670587
 13
14.224399
 23
33.670587
  0
SOLID
  8
14
  6
CONTINUOUS
 10
15.824399
 20
33.170587
 11
14.224399
 21
33.670587
 12
15.824399
 22
33.170587
 13
15.824399
 23
33.170587
  0
SOLID
  8
14
  6
CONTINUOUS
 10
15.824399
 20
33.170587
 11
14.224399
 21
33.670587
 12
14.224399
 22
33.170587
 13
14.224399
 23
33.170587
  0
SOLID
  8
14
  6
CONTINUOUS
 10
15.824399
 20
33.170587
 11
14.224399
 21
33.170587
 12
14.224399
 22
33.170587
 13
14.224399
 23
33.170587
  0
SOLID
  8
14
  6
CONTINUOUS
 10
15.824399
 20
33.170587
 11
14.224399
 21
33.170587
 12
15.824399
 22
33.170587
 13
15.824399
 23
33.170587
  0
SOLID
  8
14
  6
CONTINUOUS
 10
29.670150
 20
32.950587
 11
29.670150
 21
33.550587
 12
27.270150
 22
33.550587
 13
27.270150
 23
33.550587
  0
SOLID
  8
14
  6
CONTINUOUS
 10
29.670150
 20
32.950587
 11
27.270150
 21
33.550587
 12
27.270150
 22
33.550587
 13
27.270150
 23
33.550587
  0
SOLID
  8
14
  6
CONTINUOUS
 10
29.670150
 20
32.950587
 11
27.270150
 21
33.550587
 12
29.670150
 22
32.950587
 13
29.670150
 23
32.950587
  0
SOLID
  8
14
  6
CONTINUOUS
 10
29.670150
 20
32.950587
 11
27.270150
 21
33.550587
 12
27.270150
 22
32.950587
 13
27.270150
 23
32.950587
  0
SOLID
  8
14
  6
CONTINUOUS
 10
29.670150
 20
32.950587
 11
27.270150
 21
32.950587
 12
27.270150
 22
32.950587
 13
27.270150
 23
32.950587
  0
SOLID
  8
14
  6
CONTINUOUS
 10
29.670150
 20
32.950587
 11
27.270150
 21
32.950587
 12
29.670150
 22
32.950587
 13
29.670150
 23
32.950587
  0
SOLID
  8
14
  6
CONTINUOUS
 10
69.690150
 20
33.550587
 11
69.690150
 21
32.950587
 12
72.090150
 22
32.950587
 13
72.090150
 23
32.950587
  0
SOLID
  8
14
  6
CONTINUOUS
 10
69.690150
 20
33.550587
 11
72.090150
 21
32.950587
 12
72.090150
 22
32.950587
 13
72.090150
 23
32.950587
  0
SOLID
  8
14
  6
CONTINUOUS
 10
69.690150
 20
33.550587
 11
72.090150
 21
32.950587
 12
69.690150
 22
33.550587
 13
69.690150
 23
33.550587
  0
SOLID
  8
14
  6
CONTINUOUS
 10
69.690150
 20
33.550587
 11
72.090150
 21
32.950587
 12
72.090150
 22
33.550587
 13
72.090150
 23
33.550587
  0
SOLID
  8
14
  6
CONTINUOUS
 10
69.690150
 20
33.550587
 11
72.090150
 21
33.550587
 12
72.090150
 22
33.550587
 13
72.090150
 23
33.550587
  0
SOLID
  8
14
  6
CONTINUOUS
 10
69.690150
 20
33.550587
 11
72.090150
 21
33.550587
 12
69.690150
 22
33.550587
 13
69.690150
 23
33.550587
  0
SOLID
  8
14
  6
CONTINUOUS
 10
85.115902
 20
33.170587
 11
85.115902
 21
33.670587
 12
83.515902
 22
33.670587
 13
83.515902
 23
33.670587
  0
SOLID
  8
14
  6
CONTINUOUS
 10
85.115902
 20
33.170587
 11
83.515902
 21
33.670587
 12
83.515902
 22
33.670587
 13
83.515902
 23
33.670587
  0
SOLID
  8
14
  6
CONTINUOUS
 10
85.115902
 20
33.170587
 11
83.515902
 21
33.670587
 12
85.115902
 22
33.170587
 13
85.115902
 23
33.170587
  0
SOLID
  8
14
  6
CONTINUOUS
 10
85.115902
 20
33.170587
 11
83.515902
 21
33.670587
 12
83.515902
 22
33.170587
 13
83.515902
 23
33.170587
  0
SOLID
  8
14
  6
CONTINUOUS
 10
85.115902
 20
33.170587
 11
83.515902
 21
33.170587
 12
83.515902
 22
33.170587
 13
83.515902
 23
33.170587
  0
SOLID
  8
14
  6
CONTINUOUS
 10
85.115902
 20
33.170587
 11
83.515902
 21
33.170587
 12
85.115902
 22
33.170587
 13
85.115902
 23
33.170587
  0
SOLID
  8
14
  6
CONTINUOUS
 10
41.370150
 20
32.695020
 11
40.870150
 21
32.695020
 12
40.870150
 22
31.095020
 13
40.870150
 23
31.095020
  0
SOLID
  8
14
  6
CONTINUOUS
 10
41.370150
 20
32.695020
 11
40.870150
 21
31.095020
 12
40.870150
 22
31.095020
 13
40.870150
 23
31.095020
  0
SOLID
  8
14
  6
CONTINUOUS
 10
41.370150
 20
32.695020
 11
40.870150
 21
31.095020
 12
41.370150
 22
32.695020
 13
41.370150
 23
32.695020
  0
SOLID
  8
14
  6
CONTINUOUS
 10
41.370150
 20
32.695020
 11
40.870150
 21
31.095020
 12
41.370150
 22
31.095020
 13
41.370150
 23
31.095020
  0
SOLID
  8
14
  6
CONTINUOUS
 10
41.370150
 20
32.695020
 11
41.370150
 21
31.095020
 12
41.370150
 22
31.095020
 13
41.370150
 23
31.095020
  0
SOLID
  8
14
  6
CONTINUOUS
 10
41.370150
 20
32.695020
 11
41.370150
 21
31.095020
 12
41.370150
 22
32.695020
 13
41.370150
 23
32.695020
  0
SOLID
  8
14
  6
CONTINUOUS
 10
52.710150
 20
32.195020
 11
52.710150
 21
32.695020
 12
51.110150
 22
32.695020
 13
51.110150
 23
32.695020
  0
SOLID
  8
14
  6
CONTINUOUS
 10
52.710150
 20
32.195020
 11
51.110150
 21
32.695020
 12
51.110150
 22
32.695020
 13
51.110150
 23
32.695020
  0
SOLID
  8
14
  6
CONTINUOUS
 10
52.710150
 20
32.195020
 11
51.110150
 21
32.695020
 12
52.710150
 22
32.195020
 13
52.710150
 23
32.195020
  0
SOLID
  8
14
  6
CONTINUOUS
 10
52.710150
 20
32.195020
 11
51.110150
 21
32.695020
 12
51.110150
 22
32.195020
 13
51.110150
 23
32.195020
  0
SOLID
  8
14
  6
CONTINUOUS
 10
52.710150
 20
32.195020
 11
51.110150
 21
32.195020
 12
51.110150
 22
32.195020
 13
51.110150
 23
32.195020
  0
SOLID
  8
14
  6
CONTINUOUS
 10
52.710150
 20
32.195020
 11
51.110150
 21
32.195020
 12
52.710150
 22
32.195020
 13
52.710150
 23
32.195020
  0
SOLID
  8
14
  6
CONTINUOUS
 10
36.470150
 20
26.295020
 11
36.970150
 21
26.295020
 12
36.970150
 22
31.895020
 13
36.970150
 23
31.895020
  0
SOLID
  8
14
  6
CONTINUOUS
 10
36.470150
 20
26.295020
 11
36.970150
 21
31.895020
 12
36.970150
 22
31.895020
 13
36.970150
 23
31.895020
  0
SOLID
  8
14
  6
CONTINUOUS
 10
36.470150
 20
26.295020
 11
36.970150
 21
31.895020
 12
36.470150
 22
26.295020
 13
36.470150
 23
26.295020
  0
SOLID
  8
14
  6
CONTINUOUS
 10
36.470150
 20
26.295020
 11
36.970150
 21
31.895020
 12
36.470150
 22
31.895020
 13
36.470150
 23
31.895020
  0
SOLID
  8
14
  6
CONTINUOUS
 10
36.470150
 20
26.295020
 11
36.470150
 21
31.895020
 12
36.470150
 22
31.895020
 13
36.470150
 23
31.895020
  0
SOLID
  8
14
  6
CONTINUOUS
 10
36.470150
 20
26.295020
 11
36.470150
 21
31.895020
 12
36.470150
 22
26.295020
 13
36.470150
 23
26.295020
  0
SOLID
  8
14
  6
CONTINUOUS
 10
62.370150
 20
26.295020
 11
62.870150
 21
26.295020
 12
62.870150
 22
31.895020
 13
62.870150
 23
31.895020
  0
SOLID
  8
14
  6
CONTINUOUS
 10
62.370150
 20
26.295020
 11
62.870150
 21
31.895020
 12
62.870150
 22
31.895020
 13
62.870150
 23
31.895020
  0
SOLID
  8
14
  6
CONTINUOUS
 10
62.370150
 20
26.295020
 11
62.870150
 21
31.895020
 12
62.370150
 22
26.295020
 13
62.370150
 23
26.295020
  0
SOLID
  8
14
  6
CONTINUOUS
 10
62.370150
 20
26.295020
 11
62.870150
 21
31.895020
 12
62.370150
 22
31.895020
 13
62.370150
 23
31.895020
  0
SOLID
  8
14
  6
CONTINUOUS
 10
62.370150
 20
26.295020
 11
62.370150
 21
31.895020
 12
62.370150
 22
31.895020
 13
62.370150
 23
31.895020
  0
SOLID
  8
14
  6
CONTINUOUS
 10
62.370150
 20
26.295020
 11
62.370150
 21
31.895020
 12
62.370150
 22
26.295020
 13
62.370150
 23
26.295020
  0
SOLID
  8
14
  6
CONTINUOUS
 10
43.270150
 20
26.295020
 11
43.270150
 21
26.795020
 12
40.870150
 22
26.795020
 13
40.870150
 23
26.795020
  0
SOLID
  8
14
  6
CONTINUOUS
 10
43.270150
 20
26.295020
 11
40.870150
 21
26.795020
 12
40.870150
 22
26.795020
 13
40.870150
 23
26.795020
  0
SOLID
  8
14
  6
CONTINUOUS
 10
43.270150
 20
26.295020
 11
40.870150
 21
26.795020
 12
43.270150
 22
26.295020
 13
43.270150
 23
26.295020
  0
SOLID
  8
14
  6
CONTINUOUS
 10
43.270150
 20
26.295020
 11
40.870150
 21
26.795020
 12
40.870150
 22
26.295020
 13
40.870150
 23
26.295020
  0
SOLID
  8
14
  6
CONTINUOUS
 10
43.270150
 20
26.295020
 11
40.870150
 21
26.295020
 12
40.870150
 22
26.295020
 13
40.870150
 23
26.295020
  0
SOLID
  8
14
  6
CONTINUOUS
 10
43.270150
 20
26.295020
 11
40.870150
 21
26.295020
 12
43.270150
 22
26.295020
 13
43.270150
 23
26.295020
  0
SOLID
  8
14
  6
CONTINUOUS
 10
53.130150
 20
26.835020
 11
53.130150
 21
26.295020
 12
55.530150
 22
26.295020
 13
55.530150
 23
26.295020
  0
SOLID
  8
14
  6
CONTINUOUS
 10
53.130150
 20
26.835020
 11
55.530150
 21
26.295020
 12
55.530150
 22
26.295020
 13
55.530150
 23
26.295020
  0
SOLID
  8
14
  6
CONTINUOUS
 10
53.130150
 20
26.835020
 11
55.530150
 21
26.295020
 12
53.130150
 22
26.835020
 13
53.130150
 23
26.835020
  0
SOLID
  8
14
  6
CONTINUOUS
 10
53.130150
 20
26.835020
 11
55.530150
 21
26.295020
 12
55.530150
 22
26.835020
 13
55.530150
 23
26.835020
  0
SOLID
  8
14
  6
CONTINUOUS
 10
53.130150
 20
26.835020
 11
55.530150
 21
26.835020
 12
55.530150
 22
26.835020
 13
55.530150
 23
26.835020
  0
SOLID
  8
14
  6
CONTINUOUS
 10
53.130150
 20
26.835020
 11
55.530150
 21
26.835020
 12
53.130150
 22
26.835020
 13
53.130150
 23
26.835020
  0
SOLID
  8
14
  6
CONTINUOUS
 10
28.070150
 20
21.695020
 11
28.670150
 21
21.695020
 12
28.670150
 22
23.695020
 13
28.670150
 23
23.695020
  0
SOLID
  8
14
  6
CONTINUOUS
 10
28.070150
 20
21.695020
 11
28.670150
 21
23.695020
 12
28.670150
 22
23.695020
 13
28.670150
 23
23.695020
  0
SOLID
  8
14
  6
CONTINUOUS
 10
28.070150
 20
21.695020
 11
28.670150
 21
23.695020
 12
28.070150
 22
21.695020
 13
28.070150
 23
21.695020
  0
SOLID
  8
14
  6
CONTINUOUS
 10
28.070150
 20
21.695020
 11
28.670150
 21
23.695020
 12
28.070150
 22
23.695020
 13
28.070150
 23
23.695020
  0
SOLID
  8
14
  6
CONTINUOUS
 10
28.070150
 20
21.695020
 11
28.070150
 21
23.695020
 12
28.070150
 22
23.695020
 13
28.070150
 23
23.695020
  0
SOLID
  8
14
  6
CONTINUOUS
 10
28.070150
 20
21.695020
 11
28.070150
 21
23.695020
 12
28.070150
 22
21.695020
 13
28.070150
 23
21.695020
  0
SOLID
  8
14
  6
CONTINUOUS
 10
33.490150
 20
21.295020
 11
34.090150
 21
21.295020
 12
34.090150
 22
23.695020
 13
34.090150
 23
23.695020
  0
SOLID
  8
14
  6
CONTINUOUS
 10
33.490150
 20
21.295020
 11
34.090150
 21
23.695020
 12
34.090150
 22
23.695020
 13
34.090150
 23
23.695020
  0
SOLID
  8
14
  6
CONTINUOUS
 10
33.490150
 20
21.295020
 11
34.090150
 21
23.695020
 12
33.490150
 22
21.295020
 13
33.490150
 23
21.295020
  0
SOLID
  8
14
  6
CONTINUOUS
 10
33.490150
 20
21.295020
 11
34.090150
 21
23.695020
 12
33.490150
 22
23.695020
 13
33.490150
 23
23.695020
  0
SOLID
  8
14
  6
CONTINUOUS
 10
33.490150
 20
21.295020
 11
33.490150
 21
23.695020
 12
33.490150
 22
23.695020
 13
33.490150
 23
23.695020
  0
SOLID
  8
14
  6
CONTINUOUS
 10
33.490150
 20
21.295020
 11
33.490150
 21
23.695020
 12
33.490150
 22
21.295020
 13
33.490150
 23
21.295020
  0
SOLID
  8
14
  6
CONTINUOUS
 10
65.250150
 20
21.295020
 11
65.850150
 21
21.295020
 12
65.850150
 22
23.695020
 13
65.850150
 23
23.695020
  0
SOLID
  8
14
  6
CONTINUOUS
 10
65.250150
 20
21.295020
 11
65.850150
 21
23.695020
 12
65.850150
 22
23.695020
 13
65.850150
 23
23.695020
  0
SOLID
  8
14
  6
CONTINUOUS
 10
65.250150
 20
21.295020
 11
65.850150
 21
23.695020
 12
65.250150
 22
21.295020
 13
65.250150
 23
21.295020
  0
SOLID
  8
14
  6
CONTINUOUS
 10
65.250150
 20
21.295020
 11
65.850150
 21
23.695020
 12
65.250150
 22
23.695020
 13
65.250150
 23
23.695020
  0
SOLID
  8
14
  6
CONTINUOUS
 10
65.250150
 20
21.295020
 11
65.250150
 21
23.695020
 12
65.250150
 22
23.695020
 13
65.250150
 23
23.695020
  0
SOLID
  8
14
  6
CONTINUOUS
 10
65.250150
 20
21.295020
 11
65.250150
 21
23.695020
 12
65.250150
 22
21.295020
 13
65.250150
 23
21.295020
  0
SOLID
  8
14
  6
CONTINUOUS
 10
70.670150
 20
21.695020
 11
71.270150
 21
21.695020
 12
71.270150
 22
23.695020
 13
71.270150
 23
23.695020
  0
SOLID
  8
14
  6
CONTINUOUS
 10
70.670150
 20
21.695020
 11
71.270150
 21
23.695020
 12
71.270150
 22
23.695020
 13
71.270150
 23
23.695020
  0
SOLID
  8
14
  6
CONTINUOUS
 10
70.670150
 20
21.695020
 11
71.270150
 21
23.695020
 12
70.670150
 22
21.695020
 13
70.670150
 23
21.695020
  0
SOLID
  8
14
  6
CONTINUOUS
 10
70.670150
 20
21.695020
 11
71.270150
 21
23.695020
 12
70.670150
 22
23.695020
 13
70.670150
 23
23.695020
  0
SOLID
  8
14
  6
CONTINUOUS
 10
70.670150
 20
21.695020
 11
70.670150
 21
23.695020
 12
70.670150
 22
23.695020
 13
70.670150
 23
23.695020
  0
SOLID
  8
14
  6
CONTINUOUS
 10
70.670150
 20
21.695020
 11
70.670150
 21
23.695020
 12
70.670150
 22
21.695020
 13
70.670150
 23
21.695020
  0
SOLID
  8
14
  6
CONTINUOUS
 10
18.470150
 20
18.770587
 11
18.470150
 21
18.170587
 12
20.070150
 22
18.170587
 13
20.070150
 23
18.170587
  0
SOLID
  8
14
  6
CONTINUOUS
 10
18.470150
 20
18.770587
 11
20.070150
 21
18.170587
 12
20.070150
 22
18.170587
 13
20.070150
 23
18.170587
  0
SOLID
  8
14
  6
CONTINUOUS
 10
18.470150
 20
18.770587
 11
20.070150
 21
18.170587
 12
18.470150
 22
18.770587
 13
18.470150
 23
18.770587
  0
SOLID
  8
14
  6
CONTINUOUS
 10
18.470150
 20
18.770587
 11
20.070150
 21
18.170587
 12
20.070150
 22
18.770587
 13
20.070150
 23
18.770587
  0
SOLID
  8
14
  6
CONTINUOUS
 10
18.470150
 20
18.770587
 11
20.070150
 21
18.770587
 12
20.070150
 22
18.770587
 13
20.070150
 23
18.770587
  0
SOLID
  8
14
  6
CONTINUOUS
 10
18.470150
 20
18.770587
 11
20.070150
 21
18.770587
 12
18.470150
 22
18.770587
 13
18.470150
 23
18.770587
  0
SOLID
  8
14
  6
CONTINUOUS
 10
46.470150
 20
17.765020
 11
46.470150
 21
18.365020
 12
44.070150
 22
18.365020
 13
44.070150
 23
18.365020
  0
SOLID
  8
14
  6
CONTINUOUS
 10
46.470150
 20
17.765020
 11
44.070150
 21
18.365020
 12
44.070150
 22
18.365020
 13
44.070150
 23
18.365020
  0
SOLID
  8
14
  6
CONTINUOUS
 10
46.470150
 20
17.765020
 11
44.070150
 21
18.365020
 12
46.470150
 22
17.765020
 13
46.470150
 23
17.765020
  0
SOLID
  8
14
  6
CONTINUOUS
 10
46.470150
 20
17.765020
 11
44.070150
 21
18.365020
 12
44.070150
 22
17.765020
 13
44.070150
 23
17.765020
  0
SOLID
  8
14
  6
CONTINUOUS
 10
46.470150
 20
17.765020
 11
44.070150
 21
17.765020
 12
44.070150
 22
17.765020
 13
44.070150
 23
17.765020
  0
SOLID
  8
14
  6
CONTINUOUS
 10
46.470150
 20
17.765020
 11
44.070150
 21
17.765020
 12
46.470150
 22
17.765020
 13
46.470150
 23
17.765020
  0
SOLID
  8
14
  6
CONTINUOUS
 10
55.270150
 20
17.765020
 11
55.270150
 21
18.365020
 12
52.870150
 22
18.365020
 13
52.870150
 23
18.365020
  0
SOLID
  8
14
  6
CONTINUOUS
 10
55.270150
 20
17.765020
 11
52.870150
 21
18.365020
 12
52.870150
 22
18.365020
 13
52.870150
 23
18.365020
  0
SOLID
  8
14
  6
CONTINUOUS
 10
55.270150
 20
17.765020
 11
52.870150
 21
18.365020
 12
55.270150
 22
17.765020
 13
55.270150
 23
17.765020
  0
SOLID
  8
14
  6
CONTINUOUS
 10
55.270150
 20
17.765020
 11
52.870150
 21
18.365020
 12
52.870150
 22
17.765020
 13
52.870150
 23
17.765020
  0
SOLID
  8
14
  6
CONTINUOUS
 10
55.270150
 20
17.765020
 11
52.870150
 21
17.765020
 12
52.870150
 22
17.765020
 13
52.870150
 23
17.765020
  0
SOLID
  8
14
  6
CONTINUOUS
 10
55.270150
 20
17.765020
 11
52.870150
 21
17.765020
 12
55.270150
 22
17.765020
 13
55.270150
 23
17.765020
  0
SOLID
  8
14
  6
CONTINUOUS
 10
79.270150
 20
18.770587
 11
79.270150
 21
18.170587
 12
80.870150
 22
18.170587
 13
80.870150
 23
18.170587
  0
SOLID
  8
14
  6
CONTINUOUS
 10
79.270150
 20
18.770587
 11
80.870150
 21
18.170587
 12
80.870150
 22
18.170587
 13
80.870150
 23
18.170587
  0
SOLID
  8
14
  6
CONTINUOUS
 10
79.270150
 20
18.770587
 11
80.870150
 21
18.170587
 12
79.270150
 22
18.770587
 13
79.270150
 23
18.770587
  0
SOLID
  8
14
  6
CONTINUOUS
 10
79.270150
 20
18.770587
 11
80.870150
 21
18.170587
 12
80.870150
 22
18.770587
 13
80.870150
 23
18.770587
  0
SOLID
  8
14
  6
CONTINUOUS
 10
79.270150
 20
18.770587
 11
80.870150
 21
18.770587
 12
80.870150
 22
18.770587
 13
80.870150
 23
18.770587
  0
SOLID
  8
14
  6
CONTINUOUS
 10
79.270150
 20
18.770587
 11
80.870150
 21
18.770587
 12
79.270150
 22
18.770587
 13
79.270150
 23
18.770587
  0
SOLID
  8
14
  6
CONTINUOUS
 10
22.970150
 20
12.370587
 11
22.470150
 21
12.370587
 12
22.470150
 22
10.570587
 13
22.470150
 23
10.570587
  0
SOLID
  8
14
  6
CONTINUOUS
 10
22.970150
 20
12.370587
 11
22.470150
 21
10.570587
 12
22.470150
 22
10.570587
 13
22.470150
 23
10.570587
  0
SOLID
  8
14
  6
CONTINUOUS
 10
22.970150
 20
12.370587
 11
22.470150
 21
10.570587
 12
22.970150
 22
12.370587
 13
22.970150
 23
12.370587
  0
SOLID
  8
14
  6
CONTINUOUS
 10
22.970150
 20
12.370587
 11
22.470150
 21
10.570587
 12
22.970150
 22
10.570587
 13
22.970150
 23
10.570587
  0
SOLID
  8
14
  6
CONTINUOUS
 10
22.970150
 20
12.370587
 11
22.970150
 21
10.570587
 12
22.970150
 22
10.570587
 13
22.970150
 23
10.570587
  0
SOLID
  8
14
  6
CONTINUOUS
 10
22.970150
 20
12.370587
 11
22.970150
 21
10.570587
 12
22.970150
 22
12.370587
 13
22.970150
 23
12.370587
  0
SOLID
  8
14
  6
CONTINUOUS
 10
76.370150
 20
10.570587
 11
76.870150
 21
10.570587
 12
76.870150
 22
12.770587
 13
76.870150
 23
12.770587
  0
SOLID
  8
14
  6
CONTINUOUS
 10
76.370150
 20
10.570587
 11
76.870150
 21
12.770587
 12
76.870150
 22
12.770587
 13
76.870150
 23
12.770587
  0
SOLID
  8
14
  6
CONTINUOUS
 10
76.370150
 20
10.570587
 11
76.870150
 21
12.770587
 12
76.370150
 22
10.570587
 13
76.370150
 23
10.570587
  0
SOLID
  8
14
  6
CONTINUOUS
 10
76.370150
 20
10.570587
 11
76.870150
 21
12.770587
 12
76.370150
 22
12.770587
 13
76.370150
 23
12.770587
  0
SOLID
  8
14
  6
CONTINUOUS
 10
76.370150
 20
10.570587
 11
76.370150
 21
12.770587
 12
76.370150
 22
12.770587
 13
76.370150
 23
12.770587
  0
SOLID
  8
14
  6
CONTINUOUS
 10
76.370150
 20
10.570587
 11
76.370150
 21
12.770587
 12
76.370150
 22
10.570587
 13
76.370150
 23
10.570587
  0
SOLID
  8
14
  6
CONTINUOUS
 10
33.870150
 20
9.715020
 11
33.330150
 21
9.715020
 12
33.330150
 22
7.315020
 13
33.330150
 23
7.315020
  0
SOLID
  8
14
  6
CONTINUOUS
 10
33.870150
 20
9.715020
 11
33.330150
 21
7.315020
 12
33.330150
 22
7.315020
 13
33.330150
 23
7.315020
  0
SOLID
  8
14
  6
CONTINUOUS
 10
33.870150
 20
9.715020
 11
33.330150
 21
7.315020
 12
33.870150
 22
9.715020
 13
33.870150
 23
9.715020
  0
SOLID
  8
14
  6
CONTINUOUS
 10
33.870150
 20
9.715020
 11
33.330150
 21
7.315020
 12
33.870150
 22
7.315020
 13
33.870150
 23
7.315020
  0
SOLID
  8
14
  6
CONTINUOUS
 10
33.870150
 20
9.715020
 11
33.870150
 21
7.315020
 12
33.870150
 22
7.315020
 13
33.870150
 23
7.315020
  0
SOLID
  8
14
  6
CONTINUOUS
 10
33.870150
 20
9.715020
 11
33.870150
 21
7.315020
 12
33.870150
 22
9.715020
 13
33.870150
 23
9.715020
  0
SOLID
  8
14
  6
CONTINUOUS
 10
44.490150
 20
9.715020
 11
43.950150
 21
9.715020
 12
43.950150
 22
7.315020
 13
43.950150
 23
7.315020
  0
SOLID
  8
14
  6
CONTINUOUS
 10
44.490150
 20
9.715020
 11
43.950150
 21
7.315020
 12
43.950150
 22
7.315020
 13
43.950150
 23
7.315020
  0
SOLID
  8
14
  6
CONTINUOUS
 10
44.490150
 20
9.715020
 11
43.950150
 21
7.315020
 12
44.490150
 22
9.715020
 13
44.490150
 23
9.715020
  0
SOLID
  8
14
  6
CONTINUOUS
 10
44.490150
 20
9.715020
 11
43.950150
 21
7.315020
 12
44.490150
 22
7.315020
 13
44.490150
 23
7.315020
  0
SOLID
  8
14
  6
CONTINUOUS
 10
44.490150
 20
9.715020
 11
44.490150
 21
7.315020
 12
44.490150
 22
7.315020
 13
44.490150
 23
7.315020
  0
SOLID
  8
14
  6
CONTINUOUS
 10
44.490150
 20
9.715020
 11
44.490150
 21
7.315020
 12
44.490150
 22
9.715020
 13
44.490150
 23
9.715020
  0
SOLID
  8
14
  6
CONTINUOUS
 10
54.850150
 20
7.315020
 11
55.390150
 21
7.315020
 12
55.390150
 22
9.715020
 13
55.390150
 23
9.715020
  0
SOLID
  8
14
  6
CONTINUOUS
 10
54.850150
 20
7.315020
 11
55.390150
 21
9.715020
 12
55.390150
 22
9.715020
 13
55.390150
 23
9.715020
  0
SOLID
  8
14
  6
CONTINUOUS
 10
54.850150
 20
7.315020
 11
55.390150
 21
9.715020
 12
54.850150
 22
7.315020
 13
54.850150
 23
7.315020
  0
SOLID
  8
14
  6
CONTINUOUS
 10
54.850150
 20
7.315020
 11
55.390150
 21
9.715020
 12
54.850150
 22
9.715020
 13
54.850150
 23
9.715020
  0
SOLID
  8
14
  6
CONTINUOUS
 10
54.850150
 20
7.315020
 11
54.850150
 21
9.715020
 12
54.850150
 22
9.715020
 13
54.850150
 23
9.715020
  0
SOLID
  8
14
  6
CONTINUOUS
 10
54.850150
 20
7.315020
 11
54.850150
 21
9.715020
 12
54.850150
 22
7.315020
 13
54.850150
 23
7.315020
  0
SOLID
  8
14
  6
CONTINUOUS
 10
65.470150
 20
7.315020
 11
66.010150
 21
7.315020
 12
66.010150
 22
9.715020
 13
66.010150
 23
9.715020
  0
SOLID
  8
14
  6
CONTINUOUS
 10
65.470150
 20
7.315020
 11
66.010150
 21
9.715020
 12
66.010150
 22
9.715020
 13
66.010150
 23
9.715020
  0
SOLID
  8
14
  6
CONTINUOUS
 10
65.470150
 20
7.315020
 11
66.010150
 21
9.715020
 12
65.470150
 22
7.315020
 13
65.470150
 23
7.315020
  0
SOLID
  8
14
  6
CONTINUOUS
 10
65.470150
 20
7.315020
 11
66.010150
 21
9.715020
 12
65.470150
 22
9.715020
 13
65.470150
 23
9.715020
  0
SOLID
  8
14
  6
CONTINUOUS
 10
65.470150
 20
7.315020
 11
65.470150
 21
9.715020
 12
65.470150
 22
9.715020
 13
65.470150
 23
9.715020
  0
SOLID
  8
14
  6
CONTINUOUS
 10
65.470150
 20
7.315020
 11
65.470150
 21
9.715020
 12
65.470150
 22
7.315020
 13
65.470150
 23
7.315020
  0
LINE
  8
18
  6
CONTINUOUS
 10
14.540073
 20
47.170587
 11
22.600938
 21
47.170587
  0
LINE
  8
18
  6
CONTINUOUS
 10
14.540073
 20
46.790587
 11
22.600938
 21
46.790587
  0
LINE
  8
18
  6
CONTINUOUS
 10
76.739362
 20
47.170587
 11
84.800227
 21
47.170587
  0
LINE
  8
18
  6
CONTINUOUS
 10
76.739362
 20
46.790587
 11
84.800227
 21
46.790587
  0
LINE
  8
18
  6
CONTINUOUS
 10
23.140938
 20
45.370587
 11
29.270150
 21
45.370587
  0
LINE
  8
18
  6
CONTINUOUS
 10
23.140938
 20
44.990587
 11
29.270150
 21
44.990587
  0
LINE
  8
18
  6
CONTINUOUS
 10
29.650150
 20
45.370587
 11
33.370150
 21
45.370587
  0
LINE
  8
18
  6
CONTINUOUS
 10
29.650150
 20
44.990587
 11
33.370150
 21
44.990587
  0
LINE
  8
18
  6
CONTINUOUS
 10
29.270150
 20
45.370587
 11
29.650150
 21
45.370587
  0
LINE
  8
18
  6
CONTINUOUS
 10
29.270150
 20
44.990587
 11
29.650150
 21
44.990587
  0
LINE
  8
18
  6
CONTINUOUS
 10
65.970150
 20
45.370587
 11
69.690150
 21
45.370587
  0
LINE
  8
18
  6
CONTINUOUS
 10
65.970150
 20
44.990587
 11
69.690150
 21
44.990587
  0
LINE
  8
18
  6
CONTINUOUS
 10
70.070150
 20
45.370587
 11
76.199362
 21
45.370587
  0
LINE
  8
18
  6
CONTINUOUS
 10
70.070150
 20
44.990587
 11
76.199362
 21
44.990587
  0
LINE
  8
18
  6
CONTINUOUS
 10
69.690150
 20
45.370587
 11
70.070150
 21
45.370587
  0
LINE
  8
18
  6
CONTINUOUS
 10
69.690150
 20
44.990587
 11
70.070150
 21
44.990587
  0
LINE
  8
18
  6
CONTINUOUS
 10
11.443800
 20
39.350587
 11
14.224399
 21
39.350587
  0
LINE
  8
18
  6
CONTINUOUS
 10
11.443800
 20
38.970587
 11
14.224399
 21
38.970587
  0
LINE
  8
18
  6
CONTINUOUS
 10
14.604399
 20
39.350587
 11
21.924399
 21
39.350587
  0
LINE
  8
18
  6
CONTINUOUS
 10
14.604399
 20
38.970587
 11
21.924399
 21
38.970587
  0
LINE
  8
18
  6
CONTINUOUS
 10
14.224399
 20
39.350587
 11
14.604399
 21
39.350587
  0
LINE
  8
18
  6
CONTINUOUS
 10
14.224399
 20
38.970587
 11
14.604399
 21
38.970587
  0
LINE
  8
18
  6
CONTINUOUS
 10
77.415901
 20
39.350587
 11
84.735901
 21
39.350587
  0
LINE
  8
18
  6
CONTINUOUS
 10
77.415901
 20
38.970587
 11
84.735901
 21
38.970587
  0
LINE
  8
18
  6
CONTINUOUS
 10
85.115901
 20
39.350587
 11
87.896500
 21
39.350587
  0
LINE
  8
18
  6
CONTINUOUS
 10
85.115901
 20
38.970587
 11
87.896500
 21
38.970587
  0
LINE
  8
18
  6
CONTINUOUS
 10
84.735901
 20
39.350587
 11
85.115901
 21
39.350587
  0
LINE
  8
18
  6
CONTINUOUS
 10
84.735901
 20
38.970587
 11
85.115901
 21
38.970587
  0
LINE
  8
18
  6
CONTINUOUS
 10
29.650150
 20
35.970587
 11
33.490150
 21
35.970587
  0
LINE
  8
18
  6
CONTINUOUS
 10
29.650150
 20
35.590587
 11
33.490150
 21
35.590587
  0
LINE
  8
18
  6
CONTINUOUS
 10
33.870150
 20
35.970587
 11
36.470150
 21
35.970587
  0
LINE
  8
18
  6
CONTINUOUS
 10
33.870150
 20
35.590587
 11
36.470150
 21
35.590587
  0
LINE
  8
18
  6
CONTINUOUS
 10
29.270150
 20
35.970587
 11
29.650150
 21
35.970587
  0
LINE
  8
18
  6
CONTINUOUS
 10
29.270150
 20
35.590587
 11
29.650150
 21
35.590587
  0
LINE
  8
18
  6
CONTINUOUS
 10
33.490150
 20
35.970587
 11
33.870150
 21
35.970587
  0
LINE
  8
18
  6
CONTINUOUS
 10
33.490150
 20
35.590587
 11
33.870150
 21
35.590587
  0
LINE
  8
18
  6
CONTINUOUS
 10
36.470150
 20
35.970587
 11
36.910150
 21
35.970587
  0
LINE
  8
18
  6
CONTINUOUS
 10
36.470150
 20
35.590587
 11
36.910150
 21
35.590587
  0
LINE
  8
18
  6
CONTINUOUS
 10
62.870150
 20
35.970587
 11
65.470150
 21
35.970587
  0
LINE
  8
18
  6
CONTINUOUS
 10
62.870150
 20
35.590587
 11
65.470150
 21
35.590587
  0
LINE
  8
18
  6
CONTINUOUS
 10
65.850150
 20
35.970587
 11
69.690150
 21
35.970587
  0
LINE
  8
18
  6
CONTINUOUS
 10
65.850150
 20
35.590587
 11
69.690150
 21
35.590587
  0
LINE
  8
18
  6
CONTINUOUS
 10
62.430150
 20
35.970587
 11
62.870150
 21
35.970587
  0
LINE
  8
18
  6
CONTINUOUS
 10
62.430150
 20
35.590587
 11
62.870150
 21
35.590587
  0
LINE
  8
18
  6
CONTINUOUS
 10
65.470150
 20
35.970587
 11
65.850150
 21
35.970587
  0
LINE
  8
18
  6
CONTINUOUS
 10
65.470150
 20
35.590587
 11
65.850150
 21
35.590587
  0
LINE
  8
18
  6
CONTINUOUS
 10
69.690150
 20
35.970587
 11
70.070150
 21
35.970587
  0
LINE
  8
18
  6
CONTINUOUS
 10
69.690150
 20
35.590587
 11
70.070150
 21
35.590587
  0
LINE
  8
18
  6
CONTINUOUS
 10
15.824399
 20
33.550587
 11
18.470150
 21
33.550587
  0
LINE
  8
18
  6
CONTINUOUS
 10
15.824399
 20
33.170587
 11
18.470150
 21
33.170587
  0
LINE
  8
18
  6
CONTINUOUS
 10
18.850150
 20
33.550587
 11
22.044399
 21
33.550587
  0
LINE
  8
18
  6
CONTINUOUS
 10
18.850150
 20
33.170587
 11
22.044399
 21
33.170587
  0
LINE
  8
18
  6
CONTINUOUS
 10
22.424399
 20
33.550587
 11
27.270150
 21
33.550587
  0
LINE
  8
18
  6
CONTINUOUS
 10
22.424399
 20
33.170587
 11
27.270150
 21
33.170587
  0
LINE
  8
18
  6
CONTINUOUS
 10
29.670150
 20
33.550587
 11
33.490150
 21
33.550587
  0
LINE
  8
18
  6
CONTINUOUS
 10
29.670150
 20
33.170587
 11
33.490150
 21
33.170587
  0
LINE
  8
18
  6
CONTINUOUS
 10
33.870150
 20
33.550587
 11
36.470150
 21
33.550587
  0
LINE
  8
18
  6
CONTINUOUS
 10
33.870150
 20
33.170587
 11
36.470150
 21
33.170587
  0
LINE
  8
18
  6
CONTINUOUS
 10
18.470150
 20
33.550587
 11
18.850150
 21
33.550587
  0
LINE
  8
18
  6
CONTINUOUS
 10
18.470150
 20
33.170587
 11
18.850150
 21
33.170587
  0
LINE
  8
18
  6
CONTINUOUS
 10
22.044399
 20
33.550587
 11
22.424399
 21
33.550587
  0
LINE
  8
18
  6
CONTINUOUS
 10
22.044399
 20
33.170587
 11
22.424399
 21
33.170587
  0
LINE
  8
18
  6
CONTINUOUS
 10
33.490150
 20
33.550587
 11
33.870150
 21
33.550587
  0
LINE
  8
18
  6
CONTINUOUS
 10
33.490150
 20
33.170587
 11
33.870150
 21
33.170587
  0
LINE
  8
18
  6
CONTINUOUS
 10
36.470150
 20
33.550587
 11
36.910150
 21
33.550587
  0
LINE
  8
18
  6
CONTINUOUS
 10
36.470150
 20
33.170587
 11
36.910150
 21
33.170587
  0
LINE
  8
18
  6
CONTINUOUS
 10
62.870150
 20
33.550587
 11
65.470150
 21
33.550587
  0
LINE
  8
18
  6
CONTINUOUS
 10
62.870150
 20
33.170587
 11
65.470150
 21
33.170587
  0
LINE
  8
18
  6
CONTINUOUS
 10
65.850150
 20
33.550587
 11
69.690150
 21
33.550587
  0
LINE
  8
18
  6
CONTINUOUS
 10
65.850150
 20
33.170587
 11
69.690150
 21
33.170587
  0
LINE
  8
18
  6
CONTINUOUS
 10
72.090150
 20
33.550587
 11
76.915901
 21
33.550587
  0
LINE
  8
18
  6
CONTINUOUS
 10
72.090150
 20
33.170587
 11
76.915901
 21
33.170587
  0
LINE
  8
18
  6
CONTINUOUS
 10
77.295901
 20
33.550587
 11
80.490150
 21
33.550587
  0
LINE
  8
18
  6
CONTINUOUS
 10
77.295901
 20
33.170587
 11
80.490150
 21
33.170587
  0
LINE
  8
18
  6
CONTINUOUS
 10
80.870150
 20
33.550587
 11
83.515902
 21
33.550587
  0
LINE
  8
18
  6
CONTINUOUS
 10
80.870150
 20
33.170587
 11
83.515902
 21
33.170587
  0
LINE
  8
18
  6
CONTINUOUS
 10
62.430150
 20
33.550587
 11
62.870150
 21
33.550587
  0
LINE
  8
18
  6
CONTINUOUS
 10
62.430150
 20
33.170587
 11
62.870150
 21
33.170587
  0
LINE
  8
18
  6
CONTINUOUS
 10
65.470150
 20
33.550587
 11
65.850150
 21
33.550587
  0
LINE
  8
18
  6
CONTINUOUS
 10
65.470150
 20
33.170587
 11
65.850150
 21
33.170587
  0
LINE
  8
18
  6
CONTINUOUS
 10
76.915901
 20
33.550587
 11
77.295901
 21
33.550587
  0
LINE
  8
18
  6
CONTINUOUS
 10
76.915901
 20
33.170587
 11
77.295901
 21
33.170587
  0
LINE
  8
18
  6
CONTINUOUS
 10
80.490150
 20
33.550587
 11
80.870150
 21
33.550587
  0
LINE
  8
18
  6
CONTINUOUS
 10
80.490150
 20
33.170587
 11
80.870150
 21
33.170587
  0
LINE
  8
18
  6
CONTINUOUS
 10
41.370150
 20
32.695020
 11
49.470150
 21
32.695020
  0
LINE
  8
18
  6
CONTINUOUS
 10
41.370150
 20
32.255020
 11
49.470150
 21
32.255020
  0
LINE
  8
18
  6
CONTINUOUS
 10
49.850150
 20
32.695020
 11
51.110150
 21
32.695020
  0
LINE
  8
18
  6
CONTINUOUS
 10
49.850150
 20
32.255020
 11
51.110150
 21
32.255020
  0
LINE
  8
18
  6
CONTINUOUS
 10
49.470150
 20
32.695020
 11
49.850150
 21
32.695020
  0
LINE
  8
18
  6
CONTINUOUS
 10
49.470150
 20
32.255020
 11
49.850150
 21
32.255020
  0
LINE
  8
18
  6
CONTINUOUS
 10
36.970150
 20
31.895020
 11
40.870150
 21
31.895020
  0
LINE
  8
18
  6
CONTINUOUS
 10
36.970150
 20
31.515020
 11
40.870150
 21
31.515020
  0
LINE
  8
18
  6
CONTINUOUS
 10
52.710150
 20
31.895020
 11
55.430150
 21
31.895020
  0
LINE
  8
18
  6
CONTINUOUS
 10
52.710150
 20
31.515020
 11
55.430150
 21
31.515020
  0
LINE
  8
18
  6
CONTINUOUS
 10
55.430150
 20
31.895020
 11
58.070150
 21
31.895020
  0
LINE
  8
18
  6
CONTINUOUS
 10
55.430150
 20
31.515020
 11
58.070150
 21
31.515020
  0
LINE
  8
18
  6
CONTINUOUS
 10
58.450150
 20
31.895020
 11
62.370150
 21
31.895020
  0
LINE
  8
18
  6
CONTINUOUS
 10
58.450150
 20
31.515020
 11
62.370150
 21
31.515020
  0
LINE
  8
18
  6
CONTINUOUS
 10
52.210150
 20
31.895020
 11
52.710150
 21
31.895020
  0
LINE
  8
18
  6
CONTINUOUS
 10
52.210150
 20
31.515020
 11
52.710150
 21
31.515020
  0
LINE
  8
18
  6
CONTINUOUS
 10
58.070150
 20
31.895020
 11
58.450150
 21
31.895020
  0
LINE
  8
18
  6
CONTINUOUS
 10
58.070150
 20
31.515020
 11
58.450150
 21
31.515020
  0
LINE
  8
18
  6
CONTINUOUS
 10
36.970150
 20
26.735020
 11
40.870150
 21
26.735020
  0
LINE
  8
18
  6
CONTINUOUS
 10
36.970150
 20
26.295020
 11
40.870150
 21
26.295020
  0
LINE
  8
18
  6
CONTINUOUS
 10
43.270150
 20
26.735020
 11
44.070150
 21
26.735020
  0
LINE
  8
18
  6
CONTINUOUS
 10
43.270150
 20
26.295020
 11
44.070150
 21
26.295020
  0
LINE
  8
18
  6
CONTINUOUS
 10
44.450150
 20
26.735020
 11
46.670150
 21
26.735020
  0
LINE
  8
18
  6
CONTINUOUS
 10
44.450150
 20
26.295020
 11
46.670150
 21
26.295020
  0
LINE
  8
18
  6
CONTINUOUS
 10
46.670150
 20
26.735020
 11
49.470150
 21
26.735020
  0
LINE
  8
18
  6
CONTINUOUS
 10
46.670150
 20
26.295020
 11
49.470150
 21
26.295020
  0
LINE
  8
18
  6
CONTINUOUS
 10
49.850150
 20
26.735020
 11
52.210150
 21
26.735020
  0
LINE
  8
18
  6
CONTINUOUS
 10
49.850150
 20
26.295020
 11
52.210150
 21
26.295020
  0
LINE
  8
18
  6
CONTINUOUS
 10
52.710150
 20
26.735020
 11
53.130150
 21
26.735020
  0
LINE
  8
18
  6
CONTINUOUS
 10
52.710150
 20
26.295020
 11
53.130150
 21
26.295020
  0
LINE
  8
18
  6
CONTINUOUS
 10
55.530150
 20
26.735020
 11
58.070150
 21
26.735020
  0
LINE
  8
18
  6
CONTINUOUS
 10
55.530150
 20
26.295020
 11
58.070150
 21
26.295020
  0
LINE
  8
18
  6
CONTINUOUS
 10
58.450150
 20
26.735020
 11
62.370150
 21
26.735020
  0
LINE
  8
18
  6
CONTINUOUS
 10
58.450150
 20
26.295020
 11
62.370150
 21
26.295020
  0
LINE
  8
18
  6
CONTINUOUS
 10
44.070150
 20
26.735020
 11
44.450150
 21
26.735020
  0
LINE
  8
18
  6
CONTINUOUS
 10
44.070150
 20
26.295020
 11
44.450150
 21
26.295020
  0
LINE
  8
18
  6
CONTINUOUS
 10
49.470150
 20
26.735020
 11
49.850150
 21
26.735020
  0
LINE
  8
18
  6
CONTINUOUS
 10
49.470150
 20
26.295020
 11
49.850150
 21
26.295020
  0
LINE
  8
18
  6
CONTINUOUS
 10
52.210150
 20
26.735020
 11
52.710150
 21
26.735020
  0
LINE
  8
18
  6
CONTINUOUS
 10
52.210150
 20
26.295020
 11
52.710150
 21
26.295020
  0
LINE
  8
18
  6
CONTINUOUS
 10
58.070150
 20
26.735020
 11
58.450150
 21
26.735020
  0
LINE
  8
18
  6
CONTINUOUS
 10
58.070150
 20
26.295020
 11
58.450150
 21
26.295020
  0
LINE
  8
18
  6
CONTINUOUS
 10
18.850150
 20
24.970587
 11
26.070150
 21
24.970587
  0
LINE
  8
18
  6
CONTINUOUS
 10
18.850150
 20
24.590587
 11
25.959286
 21
24.590587
  0
LINE
  8
18
  6
CONTINUOUS
 10
26.070150
 20
24.970587
 11
28.070150
 21
23.695020
  0
LINE
  8
18
  6
CONTINUOUS
 10
25.959286
 20
24.590587
 11
28.070150
 21
23.244312
  0
LINE
  8
18
  6
CONTINUOUS
 10
18.470150
 20
24.970587
 11
18.850150
 21
24.970587
  0
LINE
  8
18
  6
CONTINUOUS
 10
18.470150
 20
24.590587
 11
18.850150
 21
24.590587
  0
LINE
  8
18
  6
CONTINUOUS
 10
71.270150
 20
23.695020
 11
73.270150
 21
24.970587
  0
LINE
  8
18
  6
CONTINUOUS
 10
71.270150
 20
23.244312
 11
73.381014
 21
24.590587
  0
LINE
  8
18
  6
CONTINUOUS
 10
73.270150
 20
24.970587
 11
80.490150
 21
24.970587
  0
LINE
  8
18
  6
CONTINUOUS
 10
73.381014
 20
24.590587
 11
80.490150
 21
24.590587
  0
LINE
  8
18
  6
CONTINUOUS
 10
80.490150
 20
24.970587
 11
80.870150
 21
24.970587
  0
LINE
  8
18
  6
CONTINUOUS
 10
80.490150
 20
24.590587
 11
80.870150
 21
24.590587
  0
LINE
  8
18
  6
CONTINUOUS
 10
33.870150
 20
20.875020
 11
44.070150
 21
20.875020
  0
LINE
  8
18
  6
CONTINUOUS
 10
33.870150
 20
20.495020
 11
44.070150
 21
20.495020
  0
LINE
  8
18
  6
CONTINUOUS
 10
33.490150
 20
20.875020
 11
33.870150
 21
20.875020
  0
LINE
  8
18
  6
CONTINUOUS
 10
33.490150
 20
20.495020
 11
33.870150
 21
20.495020
  0
LINE
  8
18
  6
CONTINUOUS
 10
44.070150
 20
20.875020
 11
44.450150
 21
20.875020
  0
LINE
  8
18
  6
CONTINUOUS
 10
44.070150
 20
20.495020
 11
44.450150
 21
20.495020
  0
LINE
  8
18
  6
CONTINUOUS
 10
55.270150
 20
20.875020
 11
65.470150
 21
20.875020
  0
LINE
  8
18
  6
CONTINUOUS
 10
55.270150
 20
20.495020
 11
65.470150
 21
20.495020
  0
LINE
  8
18
  6
CONTINUOUS
 10
54.890150
 20
20.875020
 11
55.270150
 21
20.875020
  0
LINE
  8
18
  6
CONTINUOUS
 10
54.890150
 20
20.495020
 11
55.270150
 21
20.495020
  0
LINE
  8
18
  6
CONTINUOUS
 10
65.470150
 20
20.875020
 11
65.850150
 21
20.875020
  0
LINE
  8
18
  6
CONTINUOUS
 10
65.470150
 20
20.495020
 11
65.850150
 21
20.495020
  0
LINE
  8
18
  6
CONTINUOUS
 10
20.070150
 20
18.550587
 11
22.470150
 21
18.550587
  0
LINE
  8
18
  6
CONTINUOUS
 10
20.070150
 20
18.170587
 11
22.470150
 21
18.170587
  0
LINE
  8
18
  6
CONTINUOUS
 10
22.850150
 20
18.550587
 11
28.070150
 21
18.550587
  0
LINE
  8
18
  6
CONTINUOUS
 10
22.850150
 20
18.170587
 11
28.070150
 21
18.170587
  0
LINE
  8
18
  6
CONTINUOUS
 10
22.470150
 20
18.550587
 11
22.850150
 21
18.550587
  0
LINE
  8
18
  6
CONTINUOUS
 10
22.470150
 20
18.170587
 11
22.850150
 21
18.170587
  0
LINE
  8
18
  6
CONTINUOUS
 10
28.070150
 20
18.550587
 11
28.450150
 21
18.550587
  0
LINE
  8
18
  6
CONTINUOUS
 10
28.070150
 20
18.170587
 11
28.450150
 21
18.170587
  0
LINE
  8
18
  6
CONTINUOUS
 10
46.470150
 20
18.255020
 11
52.870150
 21
18.255020
  0
LINE
  8
18
  6
CONTINUOUS
 10
46.470150
 20
17.875020
 11
52.870150
 21
17.875020
  0
LINE
  8
18
  6
CONTINUOUS
 10
71.270150
 20
18.550587
 11
76.490150
 21
18.550587
  0
LINE
  8
18
  6
CONTINUOUS
 10
71.270150
 20
18.170587
 11
76.490150
 21
18.170587
  0
LINE
  8
18
  6
CONTINUOUS
 10
76.870150
 20
18.550587
 11
79.270150
 21
18.550587
  0
LINE
  8
18
  6
CONTINUOUS
 10
76.870150
 20
18.170587
 11
79.270150
 21
18.170587
  0
LINE
  8
18
  6
CONTINUOUS
 10
70.890150
 20
18.550587
 11
71.270150
 21
18.550587
  0
LINE
  8
18
  6
CONTINUOUS
 10
70.890150
 20
18.170587
 11
71.270150
 21
18.170587
  0
LINE
  8
18
  6
CONTINUOUS
 10
76.490150
 20
18.550587
 11
76.870150
 21
18.550587
  0
LINE
  8
18
  6
CONTINUOUS
 10
76.490150
 20
18.170587
 11
76.870150
 21
18.170587
  0
LINE
  8
18
  6
CONTINUOUS
 10
22.970150
 20
10.950587
 11
28.070150
 21
10.950587
  0
LINE
  8
18
  6
CONTINUOUS
 10
22.970150
 20
10.570587
 11
28.070150
 21
10.570587
  0
LINE
  8
18
  6
CONTINUOUS
 10
28.070150
 20
10.950587
 11
28.450150
 21
10.950587
  0
LINE
  8
18
  6
CONTINUOUS
 10
28.070150
 20
10.570587
 11
28.450150
 21
10.570587
  0
LINE
  8
18
  6
CONTINUOUS
 10
71.270150
 20
10.950587
 11
76.370150
 21
10.950587
  0
LINE
  8
18
  6
CONTINUOUS
 10
71.270150
 20
10.570587
 11
76.370150
 21
10.570587
  0
LINE
  8
18
  6
CONTINUOUS
 10
70.890150
 20
10.950587
 11
71.270150
 21
10.950587
  0
LINE
  8
18
  6
CONTINUOUS
 10
70.890150
 20
10.570587
 11
71.270150
 21
10.570587
  0
LINE
  8
18
  6
CONTINUOUS
 10
28.450150
 20
7.695020
 11
33.330150
 21
7.695020
  0
LINE
  8
18
  6
CONTINUOUS
 10
28.450150
 20
7.315020
 11
33.330150
 21
7.315020
  0
LINE
  8
18
  6
CONTINUOUS
 10
33.870150
 20
7.695020
 11
43.950150
 21
7.695020
  0
LINE
  8
18
  6
CONTINUOUS
 10
33.870150
 20
7.315020
 11
43.950150
 21
7.315020
  0
LINE
  8
18
  6
CONTINUOUS
 10
44.490150
 20
7.695020
 11
54.850150
 21
7.695020
  0
LINE
  8
18
  6
CONTINUOUS
 10
44.490150
 20
7.315020
 11
54.850150
 21
7.315020
  0
LINE
  8
18
  6
CONTINUOUS
 10
55.390150
 20
7.695020
 11
65.470150
 21
7.695020
  0
LINE
  8
18
  6
CONTINUOUS
 10
55.390150
 20
7.315020
 11
65.470150
 21
7.315020
  0
LINE
  8
18
  6
CONTINUOUS
 10
66.010150
 20
7.695020
 11
70.890150
 21
7.695020
  0
LINE
  8
18
  6
CONTINUOUS
 10
66.010150
 20
7.315020
 11
70.890150
 21
7.315020
  0
LINE
  8
18
  6
CONTINUOUS
 10
28.070150
 20
7.695020
 11
28.450150
 21
7.695020
  0
LINE
  8
18
  6
CONTINUOUS
 10
28.070150
 20
7.315020
 11
28.450150
 21
7.315020
  0
LINE
  8
18
  6
CONTINUOUS
 10
70.890150
 20
7.695020
 11
71.270150
 21
7.695020
  0
LINE
  8
18
  6
CONTINUOUS
 10
70.890150
 20
7.315020
 11
71.270150
 21
7.315020
  0
LINE
  8
18
  6
CONTINUOUS
 10
10.079650
 20
39.470587
 11
12.840072
 21
47.170587
  0
LINE
  8
18
  6
CONTINUOUS
 10
10.483331
 20
39.470587
 11
13.064505
 21
46.670587
  0
LINE
  8
18
  6
CONTINUOUS
 10
14.224399
 20
33.670587
 11
14.224399
 21
38.970587
  0
LINE
  8
18
  6
CONTINUOUS
 10
14.604399
 20
33.670587
 11
14.604399
 21
38.970587
  0
LINE
  8
18
  6
CONTINUOUS
 10
14.224399
 20
38.970587
 11
14.224399
 21
39.350587
  0
LINE
  8
18
  6
CONTINUOUS
 10
14.604399
 20
38.970587
 11
14.604399
 21
39.350587
  0
LINE
  8
18
  6
CONTINUOUS
 10
18.470150
 20
18.770587
 11
18.470150
 21
24.590587
  0
LINE
  8
18
  6
CONTINUOUS
 10
18.850150
 20
18.770587
 11
18.850150
 21
24.590587
  0
LINE
  8
18
  6
CONTINUOUS
 10
18.470150
 20
24.970587
 11
18.470150
 21
33.170587
  0
LINE
  8
18
  6
CONTINUOUS
 10
18.850150
 20
24.970587
 11
18.850150
 21
33.170587
  0
LINE
  8
18
  6
CONTINUOUS
 10
18.470150
 20
24.590587
 11
18.470150
 21
24.970587
  0
LINE
  8
18
  6
CONTINUOUS
 10
18.850150
 20
24.590587
 11
18.850150
 21
24.970587
  0
LINE
  8
18
  6
CONTINUOUS
 10
18.470150
 20
33.170587
 11
18.470150
 21
33.550587
  0
LINE
  8
18
  6
CONTINUOUS
 10
18.850150
 20
33.170587
 11
18.850150
 21
33.550587
  0
LINE
  8
18
  6
CONTINUOUS
 10
22.044399
 20
37.170587
 11
22.044399
 21
37.170587
  0
LINE
  8
18
  6
CONTINUOUS
 10
22.424399
 20
37.170587
 11
22.424399
 21
37.170587
  0
LINE
  8
18
  6
CONTINUOUS
 10
21.851985
 20
39.244907
 11
22.640938
 21
41.447028
  0
LINE
  8
18
  6
CONTINUOUS
 10
22.424399
 20
39.360164
 11
23.140938
 21
41.360164
  0
LINE
  8
18
  6
CONTINUOUS
 10
22.640938
 20
41.447028
 11
22.640938
 21
44.670587
  0
LINE
  8
18
  6
CONTINUOUS
 10
23.140938
 20
41.360164
 11
23.140938
 21
45.180587
  0
LINE
  8
18
  6
CONTINUOUS
 10
23.140938
 20
45.180587
 11
23.140938
 21
44.670587
  0
LINE
  8
18
  6
CONTINUOUS
 10
22.470150
 20
12.370587
 11
22.470150
 21
18.170587
  0
LINE
  8
18
  6
CONTINUOUS
 10
22.850150
 20
12.370587
 11
22.850150
 21
18.170587
  0
LINE
  8
18
  6
CONTINUOUS
 10
22.470150
 20
18.170587
 11
22.470150
 21
18.550587
  0
LINE
  8
18
  6
CONTINUOUS
 10
22.850150
 20
18.170587
 11
22.850150
 21
18.550587
  0
LINE
  8
18
  6
CONTINUOUS
 10
28.070150
 20
7.695020
 11
28.070150
 21
10.570587
  0
LINE
  8
18
  6
CONTINUOUS
 10
28.450150
 20
7.695020
 11
28.450150
 21
10.570587
  0
LINE
  8
18
  6
CONTINUOUS
 10
28.070150
 20
10.950587
 11
28.070150
 21
18.170587
  0
LINE
  8
18
  6
CONTINUOUS
 10
28.450150
 20
10.950587
 11
28.450150
 21
18.170587
  0
LINE
  8
18
  6
CONTINUOUS
 10
28.070150
 20
18.550587
 11
28.070150
 21
21.695020
  0
LINE
  8
18
  6
CONTINUOUS
 10
28.450150
 20
18.550587
 11
28.450150
 21
21.695020
  0
LINE
  8
18
  6
CONTINUOUS
 10
28.070150
 20
21.695020
 11
28.070150
 21
21.695020
  0
LINE
  8
18
  6
CONTINUOUS
 10
28.450150
 20
21.695020
 11
28.450150
 21
21.695020
  0
LINE
  8
18
  6
CONTINUOUS
 10
28.070150
 20
7.315020
 11
28.070150
 21
7.695020
  0
LINE
  8
18
  6
CONTINUOUS
 10
28.450150
 20
7.315020
 11
28.450150
 21
7.695020
  0
LINE
  8
18
  6
CONTINUOUS
 10
28.070150
 20
10.570587
 11
28.070150
 21
10.950587
  0
LINE
  8
18
  6
CONTINUOUS
 10
28.450150
 20
10.570587
 11
28.450150
 21
10.950587
  0
LINE
  8
18
  6
CONTINUOUS
 10
28.070150
 20
18.170587
 11
28.070150
 21
18.550587
  0
LINE
  8
18
  6
CONTINUOUS
 10
28.450150
 20
18.170587
 11
28.450150
 21
18.550587
  0
LINE
  8
18
  6
CONTINUOUS
 10
29.270150
 20
33.550587
 11
29.270150
 21
35.590587
  0
LINE
  8
18
  6
CONTINUOUS
 10
29.650150
 20
33.550587
 11
29.650150
 21
35.590587
  0
LINE
  8
18
  6
CONTINUOUS
 10
29.270150
 20
35.970587
 11
29.270150
 21
44.990587
  0
LINE
  8
18
  6
CONTINUOUS
 10
29.650150
 20
35.970587
 11
29.650150
 21
44.990587
  0
LINE
  8
18
  6
CONTINUOUS
 10
29.270150
 20
35.590587
 11
29.270150
 21
35.970587
  0
LINE
  8
18
  6
CONTINUOUS
 10
29.650150
 20
35.590587
 11
29.650150
 21
35.970587
  0
LINE
  8
18
  6
CONTINUOUS
 10
29.270150
 20
44.990587
 11
29.270150
 21
45.370587
  0
LINE
  8
18
  6
CONTINUOUS
 10
29.650150
 20
44.990587
 11
29.650150
 21
45.370587
  0
LINE
  8
18
  6
CONTINUOUS
 10
33.490150
 20
9.715020
 11
33.490150
 21
20.495020
  0
LINE
  8
18
  6
CONTINUOUS
 10
33.870150
 20
9.715020
 11
33.870150
 21
20.495020
  0
LINE
  8
18
  6
CONTINUOUS
 10
33.490150
 20
20.875020
 11
33.490150
 21
21.295020
  0
LINE
  8
18
  6
CONTINUOUS
 10
33.870150
 20
20.875020
 11
33.870150
 21
21.295020
  0
LINE
  8
18
  6
CONTINUOUS
 10
33.490150
 20
23.695020
 11
33.490150
 21
33.170587
  0
LINE
  8
18
  6
CONTINUOUS
 10
33.870150
 20
23.695020
 11
33.870150
 21
33.170587
  0
LINE
  8
18
  6
CONTINUOUS
 10
33.490150
 20
20.495020
 11
33.490150
 21
20.875020
  0
LINE
  8
18
  6
CONTINUOUS
 10
33.870150
 20
20.495020
 11
33.870150
 21
20.875020
  0
LINE
  8
18
  6
CONTINUOUS
 10
33.490150
 20
33.170587
 11
33.490150
 21
33.550587
  0
LINE
  8
18
  6
CONTINUOUS
 10
33.870150
 20
33.170587
 11
33.870150
 21
33.550587
  0
LINE
  8
18
  6
CONTINUOUS
 10
33.490150
 20
35.970587
 11
33.490150
 21
44.146548
  0
LINE
  8
18
  6
CONTINUOUS
 10
33.870150
 20
35.970587
 11
33.870150
 21
44.146548
  0
LINE
  8
18
  6
CONTINUOUS
 10
33.490152
 20
44.147396
 11
33.493975
 21
43.570587
  0
LINE
  8
18
  6
CONTINUOUS
 10
33.870148
 20
44.145700
 11
33.874763
 21
45.179739
  0
LINE
  8
18
  6
CONTINUOUS
 10
33.490150
 20
35.590587
 11
33.490150
 21
35.970587
  0
LINE
  8
18
  6
CONTINUOUS
 10
33.870150
 20
35.590587
 11
33.870150
 21
35.970587
  0
LINE
  8
18
  6
CONTINUOUS
 10
36.470150
 20
31.895020
 11
36.470150
 21
31.705020
  0
LINE
  8
18
  6
CONTINUOUS
 10
36.910150
 20
31.895020
 11
36.910150
 21
31.705020
  0
LINE
  8
18
  6
CONTINUOUS
 10
36.470150
 20
31.705020
 11
36.470150
 21
33.170587
  0
LINE
  8
18
  6
CONTINUOUS
 10
36.910150
 20
31.705020
 11
36.910150
 21
33.170587
  0
LINE
  8
18
  6
CONTINUOUS
 10
36.470150
 20
33.550587
 11
36.470150
 21
35.590587
  0
LINE
  8
18
  6
CONTINUOUS
 10
36.910150
 20
33.550587
 11
36.910150
 21
35.590587
  0
LINE
  8
18
  6
CONTINUOUS
 10
36.470150
 20
33.170587
 11
36.470150
 21
33.550587
  0
LINE
  8
18
  6
CONTINUOUS
 10
36.910150
 20
33.170587
 11
36.910150
 21
33.550587
  0
LINE
  8
18
  6
CONTINUOUS
 10
36.470150
 20
35.590587
 11
36.470150
 21
35.970587
  0
LINE
  8
18
  6
CONTINUOUS
 10
36.910150
 20
35.590587
 11
36.910150
 21
35.970587
  0
LINE
  8
18
  6
CONTINUOUS
 10
44.070150
 20
9.715020
 11
44.070150
 21
17.765020
  0
LINE
  8
18
  6
CONTINUOUS
 10
44.450150
 20
9.715020
 11
44.450150
 21
17.765020
  0
LINE
  8
18
  6
CONTINUOUS
 10
44.070150
 20
18.365020
 11
44.070150
 21
20.495020
  0
LINE
  8
18
  6
CONTINUOUS
 10
44.450150
 20
18.365020
 11
44.450150
 21
20.495020
  0
LINE
  8
18
  6
CONTINUOUS
 10
44.070150
 20
20.875020
 11
44.070150
 21
26.295020
  0
LINE
  8
18
  6
CONTINUOUS
 10
44.450150
 20
20.875020
 11
44.450150
 21
26.295020
  0
LINE
  8
18
  6
CONTINUOUS
 10
44.070150
 20
20.495020
 11
44.070150
 21
20.875020
  0
LINE
  8
18
  6
CONTINUOUS
 10
44.450150
 20
20.495020
 11
44.450150
 21
20.875020
  0
LINE
  8
18
  6
CONTINUOUS
 10
44.070150
 20
26.295020
 11
44.070150
 21
26.735020
  0
LINE
  8
18
  6
CONTINUOUS
 10
44.450150
 20
26.295020
 11
44.450150
 21
26.735020
  0
LINE
  8
18
  6
CONTINUOUS
 10
49.470150
 20
26.735020
 11
49.470150
 21
29.494620
  0
LINE
  8
18
  6
CONTINUOUS
 10
49.850150
 20
26.735020
 11
49.850150
 21
29.494620
  0
LINE
  8
18
  6
CONTINUOUS
 10
49.470150
 20
29.494620
 11
49.470150
 21
32.294220
  0
LINE
  8
18
  6
CONTINUOUS
 10
49.850150
 20
29.494620
 11
49.850150
 21
32.294220
  0
LINE
  8
18
  6
CONTINUOUS
 10
49.470150
 20
32.294220
 11
49.470150
 21
32.255020
  0
LINE
  8
18
  6
CONTINUOUS
 10
49.850150
 20
32.294220
 11
49.850150
 21
32.255020
  0
LINE
  8
18
  6
CONTINUOUS
 10
49.470150
 20
26.295020
 11
49.470150
 21
26.735020
  0
LINE
  8
18
  6
CONTINUOUS
 10
49.850150
 20
26.295020
 11
49.850150
 21
26.735020
  0
LINE
  8
18
  6
CONTINUOUS
 10
49.470150
 20
32.255020
 11
49.470150
 21
32.695020
  0
LINE
  8
18
  6
CONTINUOUS
 10
49.850150
 20
32.255020
 11
49.850150
 21
32.695020
  0
LINE
  8
18
  6
CONTINUOUS
 10
52.210150
 20
26.735020
 11
52.210150
 21
31.515020
  0
LINE
  8
18
  6
CONTINUOUS
 10
52.710150
 20
26.735020
 11
52.710150
 21
31.515020
  0
LINE
  8
18
  6
CONTINUOUS
 10
52.210150
 20
31.895020
 11
52.210150
 21
32.195020
  0
LINE
  8
18
  6
CONTINUOUS
 10
52.710150
 20
31.895020
 11
52.710150
 21
32.195020
  0
LINE
  8
18
  6
CONTINUOUS
 10
52.210150
 20
26.295020
 11
52.210150
 21
26.735020
  0
LINE
  8
18
  6
CONTINUOUS
 10
52.710150
 20
26.295020
 11
52.710150
 21
26.735020
  0
LINE
  8
18
  6
CONTINUOUS
 10
52.210150
 20
31.515020
 11
52.210150
 21
31.895020
  0
LINE
  8
18
  6
CONTINUOUS
 10
52.710150
 20
31.515020
 11
52.710150
 21
31.895020
  0
LINE
  8
18
  6
CONTINUOUS
 10
54.890150
 20
9.715020
 11
54.890150
 21
17.765020
  0
LINE
  8
18
  6
CONTINUOUS
 10
55.270150
 20
9.715020
 11
55.270150
 21
17.765020
  0
LINE
  8
18
  6
CONTINUOUS
 10
54.890150
 20
18.365020
 11
54.890150
 21
20.495020
  0
LINE
  8
18
  6
CONTINUOUS
 10
55.270150
 20
18.365020
 11
55.270150
 21
20.495020
  0
LINE
  8
18
  6
CONTINUOUS
 10
54.890150
 20
20.875020
 11
54.890150
 21
26.295020
  0
LINE
  8
18
  6
CONTINUOUS
 10
55.270150
 20
20.875020
 11
55.270150
 21
26.295020
  0
LINE
  8
18
  6
CONTINUOUS
 10
54.890150
 20
20.495020
 11
54.890150
 21
20.875020
  0
LINE
  8
18
  6
CONTINUOUS
 10
55.270150
 20
20.495020
 11
55.270150
 21
20.875020
  0
LINE
  8
18
  6
CONTINUOUS
 10
58.070150
 20
26.735020
 11
58.070150
 21
29.695020
  0
LINE
  8
18
  6
CONTINUOUS
 10
58.450150
 20
26.735020
 11
58.450150
 21
29.695020
  0
LINE
  8
18
  6
CONTINUOUS
 10
58.070150
 20
29.695020
 11
58.070150
 21
31.515020
  0
LINE
  8
18
  6
CONTINUOUS
 10
58.450150
 20
29.695020
 11
58.450150
 21
31.515020
  0
LINE
  8
18
  6
CONTINUOUS
 10
58.070150
 20
26.295020
 11
58.070150
 21
26.735020
  0
LINE
  8
18
  6
CONTINUOUS
 10
58.450150
 20
26.295020
 11
58.450150
 21
26.735020
  0
LINE
  8
18
  6
CONTINUOUS
 10
58.070150
 20
31.515020
 11
58.070150
 21
31.895020
  0
LINE
  8
18
  6
CONTINUOUS
 10
58.450150
 20
31.515020
 11
58.450150
 21
31.895020
  0
LINE
  8
18
  6
CONTINUOUS
 10
62.870150
 20
31.895020
 11
62.870150
 21
31.705020
  0
LINE
  8
18
  6
CONTINUOUS
 10
62.430150
 20
31.895020
 11
62.430150
 21
33.170587
  0
LINE
  8
18
  6
CONTINUOUS
 10
62.870150
 20
31.705020
 11
62.870150
 21
33.170587
  0
LINE
  8
18
  6
CONTINUOUS
 10
62.430150
 20
33.550587
 11
62.430150
 21
35.590587
  0
LINE
  8
18
  6
CONTINUOUS
 10
62.870150
 20
33.550587
 11
62.870150
 21
35.590587
  0
LINE
  8
18
  6
CONTINUOUS
 10
62.430150
 20
33.170587
 11
62.430150
 21
33.550587
  0
LINE
  8
18
  6
CONTINUOUS
 10
62.870150
 20
33.170587
 11
62.870150
 21
33.550587
  0
LINE
  8
18
  6
CONTINUOUS
 10
62.430150
 20
35.590587
 11
62.430150
 21
35.970587
  0
LINE
  8
18
  6
CONTINUOUS
 10
62.870150
 20
35.590587
 11
62.870150
 21
35.970587
  0
LINE
  8
18
  6
CONTINUOUS
 10
65.470150
 20
9.715020
 11
65.470150
 21
20.495020
  0
LINE
  8
18
  6
CONTINUOUS
 10
65.850150
 20
9.715020
 11
65.850150
 21
20.495020
  0
LINE
  8
18
  6
CONTINUOUS
 10
65.470150
 20
20.875020
 11
65.470150
 21
21.295020
  0
LINE
  8
18
  6
CONTINUOUS
 10
65.850150
 20
20.875020
 11
65.850150
 21
21.295020
  0
LINE
  8
18
  6
CONTINUOUS
 10
65.470150
 20
23.695020
 11
65.470150
 21
33.170587
  0
LINE
  8
18
  6
CONTINUOUS
 10
65.850150
 20
23.695020
 11
65.850150
 21
33.170587
  0
LINE
  8
18
  6
CONTINUOUS
 10
65.470150
 20
20.495020
 11
65.470150
 21
20.875020
  0
LINE
  8
18
  6
CONTINUOUS
 10
65.850150
 20
20.495020
 11
65.850150
 21
20.875020
  0
LINE
  8
18
  6
CONTINUOUS
 10
65.470150
 20
33.170587
 11
65.470150
 21
33.550587
  0
LINE
  8
18
  6
CONTINUOUS
 10
65.850150
 20
33.170587
 11
65.850150
 21
33.550587
  0
LINE
  8
18
  6
CONTINUOUS
 10
65.470150
 20
35.970587
 11
65.470150
 21
44.414983
  0
LINE
  8
18
  6
CONTINUOUS
 10
65.850150
 20
35.970587
 11
65.850150
 21
44.414983
  0
LINE
  8
18
  6
CONTINUOUS
 10
65.470153
 20
44.413838
 11
65.465539
 21
45.179442
  0
LINE
  8
18
  6
CONTINUOUS
 10
65.850147
 20
44.416128
 11
65.846323
 21
43.570587
  0
LINE
  8
18
  6
CONTINUOUS
 10
65.470150
 20
35.590587
 11
65.470150
 21
35.970587
  0
LINE
  8
18
  6
CONTINUOUS
 10
65.850150
 20
35.590587
 11
65.850150
 21
35.970587
  0
LINE
  8
18
  6
CONTINUOUS
 10
69.690150
 20
33.550587
 11
69.690150
 21
35.590587
  0
LINE
  8
18
  6
CONTINUOUS
 10
70.070150
 20
33.550587
 11
70.070150
 21
35.590587
  0
LINE
  8
18
  6
CONTINUOUS
 10
69.690150
 20
35.970587
 11
69.690150
 21
44.990587
  0
LINE
  8
18
  6
CONTINUOUS
 10
70.070150
 20
35.970587
 11
70.070150
 21
44.990587
  0
LINE
  8
18
  6
CONTINUOUS
 10
69.690150
 20
35.590587
 11
69.690150
 21
35.970587
  0
LINE
  8
18
  6
CONTINUOUS
 10
70.070150
 20
35.590587
 11
70.070150
 21
35.970587
  0
LINE
  8
18
  6
CONTINUOUS
 10
69.690150
 20
44.990587
 11
69.690150
 21
45.370587
  0
LINE
  8
18
  6
CONTINUOUS
 10
70.070150
 20
44.990587
 11
70.070150
 21
45.370587
  0
LINE
  8
18
  6
CONTINUOUS
 10
70.890150
 20
7.695020
 11
70.890150
 21
10.570587
  0
LINE
  8
18
  6
CONTINUOUS
 10
71.270150
 20
7.695020
 11
71.270150
 21
10.570587
  0
LINE
  8
18
  6
CONTINUOUS
 10
70.890150
 20
10.950587
 11
70.890150
 21
18.170587
  0
LINE
  8
18
  6
CONTINUOUS
 10
71.270150
 20
10.950587
 11
71.270150
 21
18.170587
  0
LINE
  8
18
  6
CONTINUOUS
 10
70.890150
 20
18.550587
 11
70.890150
 21
21.695020
  0
LINE
  8
18
  6
CONTINUOUS
 10
71.270150
 20
18.550587
 11
71.270150
 21
21.695020
  0
LINE
  8
18
  6
CONTINUOUS
 10
70.890150
 20
21.695020
 11
70.890150
 21
21.695020
  0
LINE
  8
18
  6
CONTINUOUS
 10
71.270150
 20
21.695020
 11
71.270150
 21
21.695020
  0
LINE
  8
18
  6
CONTINUOUS
 10
70.890150
 20
7.315020
 11
70.890150
 21
7.695020
  0
LINE
  8
18
  6
CONTINUOUS
 10
71.270150
 20
7.315020
 11
71.270150
 21
7.695020
  0
LINE
  8
18
  6
CONTINUOUS
 10
70.890150
 20
10.570587
 11
70.890150
 21
10.950587
  0
LINE
  8
18
  6
CONTINUOUS
 10
71.270150
 20
10.570587
 11
71.270150
 21
10.950587
  0
LINE
  8
18
  6
CONTINUOUS
 10
70.890150
 20
18.170587
 11
70.890150
 21
18.550587
  0
LINE
  8
18
  6
CONTINUOUS
 10
71.270150
 20
18.170587
 11
71.270150
 21
18.550587
  0
LINE
  8
18
  6
CONTINUOUS
 10
76.490150
 20
12.770587
 11
76.490150
 21
18.170587
  0
LINE
  8
18
  6
CONTINUOUS
 10
76.870150
 20
12.770587
 11
76.870150
 21
18.170587
  0
LINE
  8
18
  6
CONTINUOUS
 10
76.490150
 20
18.170587
 11
76.490150
 21
18.550587
  0
LINE
  8
18
  6
CONTINUOUS
 10
76.870150
 20
18.170587
 11
76.870150
 21
18.550587
  0
LINE
  8
18
  6
CONTINUOUS
 10
76.915901
 20
37.170587
 11
76.915901
 21
37.170587
  0
LINE
  8
18
  6
CONTINUOUS
 10
77.295901
 20
37.170587
 11
77.295901
 21
37.170587
  0
LINE
  8
18
  6
CONTINUOUS
 10
76.699362
 20
44.670587
 11
76.699362
 21
45.180587
  0
LINE
  8
18
  6
CONTINUOUS
 10
76.199362
 20
44.670587
 11
76.199362
 21
45.180587
  0
LINE
  8
18
  6
CONTINUOUS
 10
76.699362
 20
45.180587
 11
76.699362
 21
41.447028
  0
LINE
  8
18
  6
CONTINUOUS
 10
76.199362
 20
45.180587
 11
76.199362
 21
41.360164
  0
LINE
  8
18
  6
CONTINUOUS
 10
76.699362
 20
41.447028
 11
77.488315
 21
39.244907
  0
LINE
  8
18
  6
CONTINUOUS
 10
76.199362
 20
41.360164
 11
76.915901
 21
39.360163
  0
LINE
  8
18
  6
CONTINUOUS
 10
80.490150
 20
18.770587
 11
80.490150
 21
24.590587
  0
LINE
  8
18
  6
CONTINUOUS
 10
80.870150
 20
18.770587
 11
80.870150
 21
24.590587
  0
LINE
  8
18
  6
CONTINUOUS
 10
80.490150
 20
24.970587
 11
80.490150
 21
33.170587
  0
LINE
  8
18
  6
CONTINUOUS
 10
80.870150
 20
24.970587
 11
80.870150
 21
33.170587
  0
LINE
  8
18
  6
CONTINUOUS
 10
80.490150
 20
24.590587
 11
80.490150
 21
24.970587
  0
LINE
  8
18
  6
CONTINUOUS
 10
80.870150
 20
24.590587
 11
80.870150
 21
24.970587
  0
LINE
  8
18
  6
CONTINUOUS
 10
80.490150
 20
33.170587
 11
80.490150
 21
33.550587
  0
LINE
  8
18
  6
CONTINUOUS
 10
80.870150
 20
33.170587
 11
80.870150
 21
33.550587
  0
LINE
  8
18
  6
CONTINUOUS
 10
84.735901
 20
33.670587
 11
84.735901
 21
38.970587
  0
LINE
  8
18
  6
CONTINUOUS
 10
85.115901
 20
33.670587
 11
85.115901
 21
38.970587
  0
LINE
  8
18
  6
CONTINUOUS
 10
84.735901
 20
38.970587
 11
84.735901
 21
39.350587
  0
LINE
  8
18
  6
CONTINUOUS
 10
85.115901
 20
38.970587
 11
85.115901
 21
39.350587
  0
LINE
  8
18
  6
CONTINUOUS
 10
88.856964
 20
39.470587
 11
86.275796
 21
46.670587
  0
LINE
  8
18
  6
CONTINUOUS
 10
89.260645
 20
39.470587
 11
86.500229
 21
47.170587
  0
LINE
  8
18
  6
CONTINUOUS
 10
40.870150
 20
26.795020
 11
40.870150
 21
26.695020
  0
LINE
  8
18
  6
CONTINUOUS
 10
41.250150
 20
26.795020
 11
41.250150
 21
26.695020
  0
LINE
  8
18
  6
CONTINUOUS
 10
40.870150
 20
26.695020
 11
40.870150
 21
31.095020
  0
LINE
  8
18
  6
CONTINUOUS
 10
41.250150
 20
26.695020
 11
41.250150
 21
31.095020
  0
LINE
  8
18
  6
CONTINUOUS
 10
40.870150
 20
31.095020
 11
40.870150
 21
31.095020
  0
LINE
  8
18
  6
CONTINUOUS
 10
41.250150
 20
31.095020
 11
41.250150
 21
31.095020
  0
LINE
  8
2
  6
CONTINUOUS
 10
13.690073
 20
46.920587
 11
13.690073
 21
46.920587
  0
POLYLINE
  8
2
  6
CONTINUOUS
 66
     1
  0
VERTEX
  8
2
  6
CONTINUOUS
 10
12.840073
 20
47.170587
  0
VERTEX
  8
2
  6
CONTINUOUS
 10
12.840073
 20
46.670587
  0
VERTEX
  8
2
  6
CONTINUOUS
 10
14.540073
 20
46.670587
  0
VERTEX
  8
2
  6
CONTINUOUS
 10
14.540073
 20
47.170587
  0
VERTEX
  8
2
  6
CONTINUOUS
 10
12.840073
 20
47.170587
  0
SEQEND
  8
2
  6
CONTINUOUS
  0
LINE
  8
2
  6
CONTINUOUS
 10
22.870938
 20
45.920587
 11
22.870938
 21
45.920587
  0
POLYLINE
  8
2
  6
CONTINUOUS
 66
     1
  0
VERTEX
  8
2
  6
CONTINUOUS
 10
22.600938
 20
44.670587
  0
VERTEX
  8
2
  6
CONTINUOUS
 10
23.140938
 20
44.670587
  0
VERTEX
  8
2
  6
CONTINUOUS
 10
23.140938
 20
47.170587
  0
VERTEX
  8
2
  6
CONTINUOUS
 10
22.600938
 20
47.170587
  0
VERTEX
  8
2
  6
CONTINUOUS
 10
22.600938
 20
44.670587
  0
SEQEND
  8
2
  6
CONTINUOUS
  0
LINE
  8
2
  6
CONTINUOUS
 10
76.469362
 20
45.920587
 11
76.469362
 21
45.920587
  0
POLYLINE
  8
2
  6
CONTINUOUS
 66
     1
  0
VERTEX
  8
2
  6
CONTINUOUS
 10
76.199362
 20
44.670587
  0
VERTEX
  8
2
  6
CONTINUOUS
 10
76.739362
 20
44.670587
  0
VERTEX
  8
2
  6
CONTINUOUS
 10
76.739362
 20
47.170587
  0
VERTEX
  8
2
  6
CONTINUOUS
 10
76.199362
 20
47.170587
  0
VERTEX
  8
2
  6
CONTINUOUS
 10
76.199362
 20
44.670587
  0
SEQEND
  8
2
  6
CONTINUOUS
  0
LINE
  8
2
  6
CONTINUOUS
 10
85.650227
 20
46.920587
 11
85.650227
 21
46.920587
  0
POLYLINE
  8
2
  6
CONTINUOUS
 66
     1
  0
VERTEX
  8
2
  6
CONTINUOUS
 10
86.500227
 20
46.670587
  0
VERTEX
  8
2
  6
CONTINUOUS
 10
86.500227
 20
47.170587
  0
VERTEX
  8
2
  6
CONTINUOUS
 10
84.800227
 20
47.170587
  0
VERTEX
  8
2
  6
CONTINUOUS
 10
84.800227
 20
46.670587
  0
VERTEX
  8
2
  6
CONTINUOUS
 10
86.500227
 20
46.670587
  0
SEQEND
  8
2
  6
CONTINUOUS
  0
LINE
  8
2
  6
CONTINUOUS
 10
33.620150
 20
44.470587
 11
33.620150
 21
44.470587
  0
POLYLINE
  8
2
  6
CONTINUOUS
 66
     1
  0
VERTEX
  8
2
  6
CONTINUOUS
 10
33.870150
 20
45.370587
  0
VERTEX
  8
2
  6
CONTINUOUS
 10
33.370150
 20
45.370587
  0
VERTEX
  8
2
  6
CONTINUOUS
 10
33.370150
 20
43.570587
  0
VERTEX
  8
2
  6
CONTINUOUS
 10
33.870150
 20
43.570587
  0
VERTEX
  8
2
  6
CONTINUOUS
 10
33.870150
 20
45.370587
  0
SEQEND
  8
2
  6
CONTINUOUS
  0
LINE
  8
2
  6
CONTINUOUS
 10
65.720150
 20
44.470587
 11
65.720150
 21
44.470587
  0
POLYLINE
  8
2
  6
CONTINUOUS
 66
     1
  0
VERTEX
  8
2
  6
CONTINUOUS
 10
65.470150
 20
43.570587
  0
VERTEX
  8
2
  6
CONTINUOUS
 10
65.970150
 20
43.570587
  0
VERTEX
  8
2
  6
CONTINUOUS
 10
65.970150
 20
45.370587
  0
VERTEX
  8
2
  6
CONTINUOUS
 10
65.470150
 20
45.370587
  0
VERTEX
  8
2
  6
CONTINUOUS
 10
65.470150
 20
43.570587
  0
SEQEND
  8
2
  6
CONTINUOUS
  0
LINE
  8
2
  6
CONTINUOUS
 10
10.743800
 20
39.220587
 11
10.743800
 21
39.220587
  0
POLYLINE
  8
2
  6
CONTINUOUS
 66
     1
  0
VERTEX
  8
2
  6
CONTINUOUS
 10
10.043800
 20
39.470587
  0
VERTEX
  8
2
  6
CONTINUOUS
 10
10.043800
 20
38.970587
  0
VERTEX
  8
2
  6
CONTINUOUS
 10
11.443800
 20
38.970587
  0
VERTEX
  8
2
  6
CONTINUOUS
 10
11.443800
 20
39.470587
  0
VERTEX
  8
2
  6
CONTINUOUS
 10
10.043800
 20
39.470587
  0
SEQEND
  8
2
  6
CONTINUOUS
  0
LINE
  8
2
  6
CONTINUOUS
 10
88.596500
 20
39.220587
 11
88.596500
 21
39.220587
  0
POLYLINE
  8
2
  6
CONTINUOUS
 66
     1
  0
VERTEX
  8
2
  6
CONTINUOUS
 10
89.296500
 20
38.970587
  0
VERTEX
  8
2
  6
CONTINUOUS
 10
89.296500
 20
39.470587
  0
VERTEX
  8
2
  6
CONTINUOUS
 10
87.896500
 20
39.470587
  0
VERTEX
  8
2
  6
CONTINUOUS
 10
87.896500
 20
38.970587
  0
VERTEX
  8
2
  6
CONTINUOUS
 10
89.296500
 20
38.970587
  0
SEQEND
  8
2
  6
CONTINUOUS
  0
LINE
  8
2
  6
CONTINUOUS
 10
22.174399
 20
38.270587
 11
22.174399
 21
38.270587
  0
POLYLINE
  8
2
  6
CONTINUOUS
 66
     1
  0
VERTEX
  8
2
  6
CONTINUOUS
 10
21.924399
 20
37.170587
  0
VERTEX
  8
2
  6
CONTINUOUS
 10
22.424399
 20
37.170587
  0
VERTEX
  8
2
  6
CONTINUOUS
 10
22.424399
 20
39.370587
  0
VERTEX
  8
2
  6
CONTINUOUS
 10
21.924399
 20
39.370587
  0
VERTEX
  8
2
  6
CONTINUOUS
 10
21.924399
 20
37.170587
  0
SEQEND
  8
2
  6
CONTINUOUS
  0
LINE
  8
2
  6
CONTINUOUS
 10
77.165901
 20
38.270587
 11
77.165901
 21
38.270587
  0
POLYLINE
  8
2
  6
CONTINUOUS
 66
     1
  0
VERTEX
  8
2
  6
CONTINUOUS
 10
76.915901
 20
37.170587
  0
VERTEX
  8
2
  6
CONTINUOUS
 10
77.415901
 20
37.170587
  0
VERTEX
  8
2
  6
CONTINUOUS
 10
77.415901
 20
39.370587
  0
VERTEX
  8
2
  6
CONTINUOUS
 10
76.915901
 20
39.370587
  0
VERTEX
  8
2
  6
CONTINUOUS
 10
76.915901
 20
37.170587
  0
SEQEND
  8
2
  6
CONTINUOUS
  0
LINE
  8
2
  6
CONTINUOUS
 10
15.024399
 20
33.420587
 11
15.024399
 21
33.420587
  0
POLYLINE
  8
2
  6
CONTINUOUS
 66
     1
  0
VERTEX
  8
2
  6
CONTINUOUS
 10
15.824399
 20
33.170587
  0
VERTEX
  8
2
  6
CONTINUOUS
 10
15.824399
 20
33.670587
  0
VERTEX
  8
2
  6
CONTINUOUS
 10
14.224399
 20
33.670587
  0
VERTEX
  8
2
  6
CONTINUOUS
 10
14.224399
 20
33.170587
  0
VERTEX
  8
2
  6
CONTINUOUS
 10
15.824399
 20
33.170587
  0
SEQEND
  8
2
  6
CONTINUOUS
  0
LINE
  8
2
  6
CONTINUOUS
 10
28.470150
 20
33.250587
 11
28.470150
 21
33.250587
  0
POLYLINE
  8
2
  6
CONTINUOUS
 66
     1
  0
VERTEX
  8
2
  6
CONTINUOUS
 10
29.670150
 20
32.950587
  0
VERTEX
  8
2
  6
CONTINUOUS
 10
29.670150
 20
33.550587
  0
VERTEX
  8
2
  6
CONTINUOUS
 10
27.270150
 20
33.550587
  0
VERTEX
  8
2
  6
CONTINUOUS
 10
27.270150
 20
32.950587
  0
VERTEX
  8
2
  6
CONTINUOUS
 10
29.670150
 20
32.950587
  0
SEQEND
  8
2
  6
CONTINUOUS
  0
LINE
  8
2
  6
CONTINUOUS
 10
70.890150
 20
33.250587
 11
70.890150
 21
33.250587
  0
POLYLINE
  8
2
  6
CONTINUOUS
 66
     1
  0
VERTEX
  8
2
  6
CONTINUOUS
 10
69.690150
 20
33.550587
  0
VERTEX
  8
2
  6
CONTINUOUS
 10
69.690150
 20
32.950587
  0
VERTEX
  8
2
  6
CONTINUOUS
 10
72.090150
 20
32.950587
  0
VERTEX
  8
2
  6
CONTINUOUS
 10
72.090150
 20
33.550587
  0
VERTEX
  8
2
  6
CONTINUOUS
 10
69.690150
 20
33.550587
  0
SEQEND
  8
2
  6
CONTINUOUS
  0
LINE
  8
2
  6
CONTINUOUS
 10
84.315902
 20
33.420587
 11
84.315902
 21
33.420587
  0
POLYLINE
  8
2
  6
CONTINUOUS
 66
     1
  0
VERTEX
  8
2
  6
CONTINUOUS
 10
85.115902
 20
33.170587
  0
VERTEX
  8
2
  6
CONTINUOUS
 10
85.115902
 20
33.670587
  0
VERTEX
  8
2
  6
CONTINUOUS
 10
83.515902
 20
33.670587
  0
VERTEX
  8
2
  6
CONTINUOUS
 10
83.515902
 20
33.170587
  0
VERTEX
  8
2
  6
CONTINUOUS
 10
85.115902
 20
33.170587
  0
SEQEND
  8
2
  6
CONTINUOUS
  0
LINE
  8
2
  6
CONTINUOUS
 10
41.120150
 20
31.895020
 11
41.120150
 21
31.895020
  0
POLYLINE
  8
2
  6
CONTINUOUS
 66
     1
  0
VERTEX
  8
2
  6
CONTINUOUS
 10
41.370150
 20
32.695020
  0
VERTEX
  8
2
  6
CONTINUOUS
 10
40.870150
 20
32.695020
  0
VERTEX
  8
2
  6
CONTINUOUS
 10
40.870150
 20
31.095020
  0
VERTEX
  8
2
  6
CONTINUOUS
 10
41.370150
 20
31.095020
  0
VERTEX
  8
2
  6
CONTINUOUS
 10
41.370150
 20
32.695020
  0
SEQEND
  8
2
  6
CONTINUOUS
  0
LINE
  8
2
  6
CONTINUOUS
 10
51.910150
 20
32.445020
 11
51.910150
 21
32.445020
  0
POLYLINE
  8
2
  6
CONTINUOUS
 66
     1
  0
VERTEX
  8
2
  6
CONTINUOUS
 10
52.710150
 20
32.195020
  0
VERTEX
  8
2
  6
CONTINUOUS
 10
52.710150
 20
32.695020
  0
VERTEX
  8
2
  6
CONTINUOUS
 10
51.110150
 20
32.695020
  0
VERTEX
  8
2
  6
CONTINUOUS
 10
51.110150
 20
32.195020
  0
VERTEX
  8
2
  6
CONTINUOUS
 10
52.710150
 20
32.195020
  0
SEQEND
  8
2
  6
CONTINUOUS
  0
LINE
  8
2
  6
CONTINUOUS
 10
36.720150
 20
29.095020
 11
36.720150
 21
29.095020
  0
POLYLINE
  8
2
  6
CONTINUOUS
 66
     1
  0
VERTEX
  8
2
  6
CONTINUOUS
 10
36.470150
 20
26.295020
  0
VERTEX
  8
2
  6
CONTINUOUS
 10
36.970150
 20
26.295020
  0
VERTEX
  8
2
  6
CONTINUOUS
 10
36.970150
 20
31.895020
  0
VERTEX
  8
2
  6
CONTINUOUS
 10
36.470150
 20
31.895020
  0
VERTEX
  8
2
  6
CONTINUOUS
 10
36.470150
 20
26.295020
  0
SEQEND
  8
2
  6
CONTINUOUS
  0
LINE
  8
2
  6
CONTINUOUS
 10
62.620150
 20
29.095020
 11
62.620150
 21
29.095020
  0
POLYLINE
  8
2
  6
CONTINUOUS
 66
     1
  0
VERTEX
  8
2
  6
CONTINUOUS
 10
62.370150
 20
26.295020
  0
VERTEX
  8
2
  6
CONTINUOUS
 10
62.870150
 20
26.295020
  0
VERTEX
  8
2
  6
CONTINUOUS
 10
62.870150
 20
31.895020
  0
VERTEX
  8
2
  6
CONTINUOUS
 10
62.370150
 20
31.895020
  0
VERTEX
  8
2
  6
CONTINUOUS
 10
62.370150
 20
26.295020
  0
SEQEND
  8
2
  6
CONTINUOUS
  0
LINE
  8
2
  6
CONTINUOUS
 10
42.070150
 20
26.545020
 11
42.070150
 21
26.545020
  0
POLYLINE
  8
2
  6
CONTINUOUS
 66
     1
  0
VERTEX
  8
2
  6
CONTINUOUS
 10
43.270150
 20
26.295020
  0
VERTEX
  8
2
  6
CONTINUOUS
 10
43.270150
 20
26.795020
  0
VERTEX
  8
2
  6
CONTINUOUS
 10
40.870150
 20
26.795020
  0
VERTEX
  8
2
  6
CONTINUOUS
 10
40.870150
 20
26.295020
  0
VERTEX
  8
2
  6
CONTINUOUS
 10
43.270150
 20
26.295020
  0
SEQEND
  8
2
  6
CONTINUOUS
  0
LINE
  8
2
  6
CONTINUOUS
 10
54.330150
 20
26.565020
 11
54.330150
 21
26.565020
  0
POLYLINE
  8
2
  6
CONTINUOUS
 66
     1
  0
VERTEX
  8
2
  6
CONTINUOUS
 10
53.130150
 20
26.835020
  0
VERTEX
  8
2
  6
CONTINUOUS
 10
53.130150
 20
26.295020
  0
VERTEX
  8
2
  6
CONTINUOUS
 10
55.530150
 20
26.295020
  0
VERTEX
  8
2
  6
CONTINUOUS
 10
55.530150
 20
26.835020
  0
VERTEX
  8
2
  6
CONTINUOUS
 10
53.130150
 20
26.835020
  0
SEQEND
  8
2
  6
CONTINUOUS
  0
LINE
  8
2
  6
CONTINUOUS
 10
28.370150
 20
22.695020
 11
28.370150
 21
22.695020
  0
POLYLINE
  8
2
  6
CONTINUOUS
 66
     1
  0
VERTEX
  8
2
  6
CONTINUOUS
 10
28.070150
 20
21.695020
  0
VERTEX
  8
2
  6
CONTINUOUS
 10
28.670150
 20
21.695020
  0
VERTEX
  8
2
  6
CONTINUOUS
 10
28.670150
 20
23.695020
  0
VERTEX
  8
2
  6
CONTINUOUS
 10
28.070150
 20
23.695020
  0
VERTEX
  8
2
  6
CONTINUOUS
 10
28.070150
 20
21.695020
  0
SEQEND
  8
2
  6
CONTINUOUS
  0
LINE
  8
2
  6
CONTINUOUS
 10
33.790150
 20
22.495020
 11
33.790150
 21
22.495020
  0
POLYLINE
  8
2
  6
CONTINUOUS
 66
     1
  0
VERTEX
  8
2
  6
CONTINUOUS
 10
33.490150
 20
21.295020
  0
VERTEX
  8
2
  6
CONTINUOUS
 10
34.090150
 20
21.295020
  0
VERTEX
  8
2
  6
CONTINUOUS
 10
34.090150
 20
23.695020
  0
VERTEX
  8
2
  6
CONTINUOUS
 10
33.490150
 20
23.695020
  0
VERTEX
  8
2
  6
CONTINUOUS
 10
33.490150
 20
21.295020
  0
SEQEND
  8
2
  6
CONTINUOUS
  0
LINE
  8
2
  6
CONTINUOUS
 10
65.550150
 20
22.495020
 11
65.550150
 21
22.495020
  0
POLYLINE
  8
2
  6
CONTINUOUS
 66
     1
  0
VERTEX
  8
2
  6
CONTINUOUS
 10
65.250150
 20
21.295020
  0
VERTEX
  8
2
  6
CONTINUOUS
 10
65.850150
 20
21.295020
  0
VERTEX
  8
2
  6
CONTINUOUS
 10
65.850150
 20
23.695020
  0
VERTEX
  8
2
  6
CONTINUOUS
 10
65.250150
 20
23.695020
  0
VERTEX
  8
2
  6
CONTINUOUS
 10
65.250150
 20
21.295020
  0
SEQEND
  8
2
  6
CONTINUOUS
  0
LINE
  8
2
  6
CONTINUOUS
 10
70.970150
 20
22.695020
 11
70.970150
 21
22.695020
  0
POLYLINE
  8
2
  6
CONTINUOUS
 66
     1
  0
VERTEX
  8
2
  6
CONTINUOUS
 10
70.670150
 20
21.695020
  0
VERTEX
  8
2
  6
CONTINUOUS
 10
71.270150
 20
21.695020
  0
VERTEX
  8
2
  6
CONTINUOUS
 10
71.270150
 20
23.695020
  0
VERTEX
  8
2
  6
CONTINUOUS
 10
70.670150
 20
23.695020
  0
VERTEX
  8
2
  6
CONTINUOUS
 10
70.670150
 20
21.695020
  0
SEQEND
  8
2
  6
CONTINUOUS
  0
LINE
  8
2
  6
CONTINUOUS
 10
19.270150
 20
18.470587
 11
19.270150
 21
18.470587
  0
POLYLINE
  8
2
  6
CONTINUOUS
 66
     1
  0
VERTEX
  8
2
  6
CONTINUOUS
 10
18.470150
 20
18.770587
  0
VERTEX
  8
2
  6
CONTINUOUS
 10
18.470150
 20
18.170587
  0
VERTEX
  8
2
  6
CONTINUOUS
 10
20.070150
 20
18.170587
  0
VERTEX
  8
2
  6
CONTINUOUS
 10
20.070150
 20
18.770587
  0
VERTEX
  8
2
  6
CONTINUOUS
 10
18.470150
 20
18.770587
  0
SEQEND
  8
2
  6
CONTINUOUS
  0
LINE
  8
2
  6
CONTINUOUS
 10
45.270150
 20
18.065020
 11
45.270150
 21
18.065020
  0
POLYLINE
  8
2
  6
CONTINUOUS
 66
     1
  0
VERTEX
  8
2
  6
CONTINUOUS
 10
46.470150
 20
17.765020
  0
VERTEX
  8
2
  6
CONTINUOUS
 10
46.470150
 20
18.365020
  0
VERTEX
  8
2
  6
CONTINUOUS
 10
44.070150
 20
18.365020
  0
VERTEX
  8
2
  6
CONTINUOUS
 10
44.070150
 20
17.765020
  0
VERTEX
  8
2
  6
CONTINUOUS
 10
46.470150
 20
17.765020
  0
SEQEND
  8
2
  6
CONTINUOUS
  0
LINE
  8
2
  6
CONTINUOUS
 10
54.070150
 20
18.065020
 11
54.070150
 21
18.065020
  0
POLYLINE
  8
2
  6
CONTINUOUS
 66
     1
  0
VERTEX
  8
2
  6
CONTINUOUS
 10
55.270150
 20
17.765020
  0
VERTEX
  8
2
  6
CONTINUOUS
 10
55.270150
 20
18.365020
  0
VERTEX
  8
2
  6
CONTINUOUS
 10
52.870150
 20
18.365020
  0
VERTEX
  8
2
  6
CONTINUOUS
 10
52.870150
 20
17.765020
  0
VERTEX
  8
2
  6
CONTINUOUS
 10
55.270150
 20
17.765020
  0
SEQEND
  8
2
  6
CONTINUOUS
  0
LINE
  8
2
  6
CONTINUOUS
 10
80.070150
 20
18.470587
 11
80.070150
 21
18.470587
  0
POLYLINE
  8
2
  6
CONTINUOUS
 66
     1
  0
VERTEX
  8
2
  6
CONTINUOUS
 10
79.270150
 20
18.770587
  0
VERTEX
  8
2
  6
CONTINUOUS
 10
79.270150
 20
18.170587
  0
VERTEX
  8
2
  6
CONTINUOUS
 10
80.870150
 20
18.170587
  0
VERTEX
  8
2
  6
CONTINUOUS
 10
80.870150
 20
18.770587
  0
VERTEX
  8
2
  6
CONTINUOUS
 10
79.270150
 20
18.770587
  0
SEQEND
  8
2
  6
CONTINUOUS
  0
LINE
  8
2
  6
CONTINUOUS
 10
22.720150
 20
11.470587
 11
22.720150
 21
11.470587
  0
POLYLINE
  8
2
  6
CONTINUOUS
 66
     1
  0
VERTEX
  8
2
  6
CONTINUOUS
 10
22.970150
 20
12.370587
  0
VERTEX
  8
2
  6
CONTINUOUS
 10
22.470150
 20
12.370587
  0
VERTEX
  8
2
  6
CONTINUOUS
 10
22.470150
 20
10.570587
  0
VERTEX
  8
2
  6
CONTINUOUS
 10
22.970150
 20
10.570587
  0
VERTEX
  8
2
  6
CONTINUOUS
 10
22.970150
 20
12.370587
  0
SEQEND
  8
2
  6
CONTINUOUS
  0
LINE
  8
2
  6
CONTINUOUS
 10
76.620150
 20
11.670587
 11
76.620150
 21
11.670587
  0
POLYLINE
  8
2
  6
CONTINUOUS
 66
     1
  0
VERTEX
  8
2
  6
CONTINUOUS
 10
76.370150
 20
10.570587
  0
VERTEX
  8
2
  6
CONTINUOUS
 10
76.870150
 20
10.570587
  0
VERTEX
  8
2
  6
CONTINUOUS
 10
76.870150
 20
12.770587
  0
VERTEX
  8
2
  6
CONTINUOUS
 10
76.370150
 20
12.770587
  0
VERTEX
  8
2
  6
CONTINUOUS
 10
76.370150
 20
10.570587
  0
SEQEND
  8
2
  6
CONTINUOUS
  0
LINE
  8
2
  6
CONTINUOUS
 10
33.600150
 20
8.515020
 11
33.600150
 21
8.515020
  0
POLYLINE
  8
2
  6
CONTINUOUS
 66
     1
  0
VERTEX
  8
2
  6
CONTINUOUS
 10
33.870150
 20
9.715020
  0
VERTEX
  8
2
  6
CONTINUOUS
 10
33.330150
 20
9.715020
  0
VERTEX
  8
2
  6
CONTINUOUS
 10
33.330150
 20
7.315020
  0
VERTEX
  8
2
  6
CONTINUOUS
 10
33.870150
 20
7.315020
  0
VERTEX
  8
2
  6
CONTINUOUS
 10
33.870150
 20
9.715020
  0
SEQEND
  8
2
  6
CONTINUOUS
  0
LINE
  8
2
  6
CONTINUOUS
 10
44.220150
 20
8.515020
 11
44.220150
 21
8.515020
  0
POLYLINE
  8
2
  6
CONTINUOUS
 66
     1
  0
VERTEX
  8
2
  6
CONTINUOUS
 10
44.490150
 20
9.715020
  0
VERTEX
  8
2
  6
CONTINUOUS
 10
43.950150
 20
9.715020
  0
VERTEX
  8
2
  6
CONTINUOUS
 10
43.950150
 20
7.315020
  0
VERTEX
  8
2
  6
CONTINUOUS
 10
44.490150
 20
7.315020
  0
VERTEX
  8
2
  6
CONTINUOUS
 10
44.490150
 20
9.715020
  0
SEQEND
  8
2
  6
CONTINUOUS
  0
LINE
  8
2
  6
CONTINUOUS
 10
55.120150
 20
8.515020
 11
55.120150
 21
8.515020
  0
POLYLINE
  8
2
  6
CONTINUOUS
 66
     1
  0
VERTEX
  8
2
  6
CONTINUOUS
 10
54.850150
 20
7.315020
  0
VERTEX
  8
2
  6
CONTINUOUS
 10
55.390150
 20
7.315020
  0
VERTEX
  8
2
  6
CONTINUOUS
 10
55.390150
 20
9.715020
  0
VERTEX
  8
2
  6
CONTINUOUS
 10
54.850150
 20
9.715020
  0
VERTEX
  8
2
  6
CONTINUOUS
 10
54.850150
 20
7.315020
  0
SEQEND
  8
2
  6
CONTINUOUS
  0
LINE
  8
2
  6
CONTINUOUS
 10
65.740150
 20
8.515020
 11
65.740150
 21
8.515020
  0
POLYLINE
  8
2
  6
CONTINUOUS
 66
     1
  0
VERTEX
  8
2
  6
CONTINUOUS
 10
65.470150
 20
7.315020
  0
VERTEX
  8
2
  6
CONTINUOUS
 10
66.010150
 20
7.315020
  0
VERTEX
  8
2
  6
CONTINUOUS
 10
66.010150
 20
9.715020
  0
VERTEX
  8
2
  6
CONTINUOUS
 10
65.470150
 20
9.715020
  0
VERTEX
  8
2
  6
CONTINUOUS
 10
65.470150
 20
7.315020
  0
SEQEND
  8
2
  6
CONTINUOUS
  0
LINE
  8
18
  6
CONTINUOUS
 10
43.270150
 20
26.695020
 11
43.870150
 21
26.695020
  0
LINE
  8
18
  6
CONTINUOUS
 10
43.870150
 20
26.695020
 11
43.870150
 21
32.274220
  0
LINE
  8
18
  6
CONTINUOUS
 10
43.870150
 20
32.274220
 11
41.370150
 21
32.274220
  0
LINE
  8
18
  6
CONTINUOUS
 10
58.260150
 20
29.695020
 11
55.430150
 21
29.695020
  0
LINE
  8
18
  6
CONTINUOUS
 10
55.430150
 20
29.695020
 11
55.430150
 21
31.705020
  0
LINE
  8
18
  6
CONTINUOUS
 10
49.660150
 20
29.494620
 11
46.670150
 21
29.494620
  0
LINE
  8
18
  6
CONTINUOUS
 10
46.670150
 20
29.494620
 11
46.670150
 21
26.515020
  0
LINE
  8
18
  6
CONTINUOUS
 10
43.870150
 20
26.695020
 11
46.670150
 21
26.695020
  0
LINE
  8
18
  6
CONTINUOUS
 10
46.670150
 20
26.695020
 11
46.677717
 21
29.494620
  0
LINE
  8
18
  6
CONTINUOUS
 10
46.677717
 20
29.494620
 11
43.870150
 21
29.494620
  0
LINE
  8
18
  6
CONTINUOUS
 10
43.870150
 20
29.494620
 11
43.870150
 21
26.695020
  0
LINE
  8
18
  6
CONTINUOUS
 10
43.870150
 20
29.494620
 11
49.660150
 21
29.494620
  0
LINE
  8
18
  6
CONTINUOUS
 10
49.660150
 20
32.294220
 11
43.870150
 21
32.294220
  0
LINE
  8
18
  6
CONTINUOUS
 10
43.870150
 20
32.294220
 11
43.870150
 21
32.274220
  0
LINE
  8
18
  6
CONTINUOUS
 10
43.870150
 20
32.274220
 11
43.870150
 21
29.494620
  0
POLYLINE
  8
2
  6
CONTINUOUS
 66
     1
  0
VERTEX
  8
2
  6
CONTINUOUS
 10
38.470150
 20
22.095020
  0
VERTEX
  8
2
  6
CONTINUOUS
 10
38.470150
 20
20.875020
  0
VERTEX
  8
2
  6
CONTINUOUS
 10
44.070150
 20
20.875020
  0
VERTEX
  8
2
  6
CONTINUOUS
 10
44.070150
 20
22.095020
  0
VERTEX
  8
2
  6
CONTINUOUS
 10
38.470150
 20
22.095020
  0
SEQEND
  8
2
  6
CONTINUOUS
  0
LINE
  8
2
  6
CONTINUOUS
 10
38.470150
 20
22.095020
 11
44.070150
 21
20.875020
  0
LINE
  8
2
  6
CONTINUOUS
 10
38.470150
 20
20.875020
 11
44.070150
 21
22.095020
  0
POLYLINE
  8
2
  6
CONTINUOUS
 66
     1
  0
VERTEX
  8
2
  6
CONTINUOUS
 10
60.870150
 20
22.095020
  0
VERTEX
  8
2
  6
CONTINUOUS
 10
55.270150
 20
22.095020
  0
VERTEX
  8
2
  6
CONTINUOUS
 10
55.270150
 20
20.875020
  0
VERTEX
  8
2
  6
CONTINUOUS
 10
60.870150
 20
20.875020
  0
VERTEX
  8
2
  6
CONTINUOUS
 10
60.870150
 20
22.095020
  0
SEQEND
  8
2
  6
CONTINUOUS
  0
LINE
  8
2
  6
CONTINUOUS
 10
60.870150
 20
22.095020
 11
55.270150
 21
20.875020
  0
LINE
  8
2
  6
CONTINUOUS
 10
55.270150
 20
22.095020
 11
60.870150
 21
20.875020
  0
POLYLINE
  8
2
  6
CONTINUOUS
 66
     1
  0
VERTEX
  8
2
  6
CONTINUOUS
 10
47.070150
 20
20.695020
  0
VERTEX
  8
2
  6
CONTINUOUS
 10
47.070150
 20
19.495020
  0
VERTEX
  8
2
  6
CONTINUOUS
 10
52.270150
 20
19.495020
  0
VERTEX
  8
2
  6
CONTINUOUS
 10
52.270150
 20
20.695020
  0
VERTEX
  8
2
  6
CONTINUOUS
 10
47.070150
 20
20.695020
  0
SEQEND
  8
2
  6
CONTINUOUS
  0
LINE
  8
2
  6
CONTINUOUS
 10
47.070150
 20
20.695020
 11
52.270150
 21
19.495020
  0
LINE
  8
2
  6
CONTINUOUS
 10
47.070150
 20
19.495020
 11
52.270150
 21
20.695020
  0
POLYLINE
  8
2
  6
CONTINUOUS
 66
     1
  0
VERTEX
  8
2
  6
CONTINUOUS
 10
31.070150
 20
20.495020
  0
VERTEX
  8
2
  6
CONTINUOUS
 10
31.070150
 20
19.295020
  0
VERTEX
  8
2
  6
CONTINUOUS
 10
33.490150
 20
19.295020
  0
VERTEX
  8
2
  6
CONTINUOUS
 10
33.490150
 20
20.495020
  0
VERTEX
  8
2
  6
CONTINUOUS
 10
31.070150
 20
20.495020
  0
SEQEND
  8
2
  6
CONTINUOUS
  0
LINE
  8
2
  6
CONTINUOUS
 10
31.070150
 20
20.495020
 11
33.490150
 21
19.295020
  0
LINE
  8
2
  6
CONTINUOUS
 10
31.070150
 20
19.295020
 11
33.490150
 21
20.495020
  0
POLYLINE
  8
2
  6
CONTINUOUS
 66
     1
  0
VERTEX
  8
2
  6
CONTINUOUS
 10
68.270150
 20
20.495020
  0
VERTEX
  8
2
  6
CONTINUOUS
 10
65.850150
 20
20.495020
  0
VERTEX
  8
2
  6
CONTINUOUS
 10
65.850150
 20
19.295020
  0
VERTEX
  8
2
  6
CONTINUOUS
 10
68.270150
 20
19.295020
  0
VERTEX
  8
2
  6
CONTINUOUS
 10
68.270150
 20
20.495020
  0
SEQEND
  8
2
  6
CONTINUOUS
  0
LINE
  8
2
  6
CONTINUOUS
 10
68.270150
 20
20.495020
 11
65.850150
 21
19.295020
  0
LINE
  8
2
  6
CONTINUOUS
 10
65.850150
 20
20.495020
 11
68.270150
 21
19.295020
  0
LINE
  8
2
  6
CONTINUOUS
 10
33.003348
 20
20.695020
 11
33.003348
 21
23.695020
  0
LINE
  8
2
  6
CONTINUOUS
 10
33.003348
 20
20.695020
 11
32.970717
 21
20.942881
  0
LINE
  8
2
  6
CONTINUOUS
 10
33.003348
 20
20.695020
 11
33.035980
 21
20.942881
  0
LINE
  8
2
  6
CONTINUOUS
 10
33.003348
 20
23.695020
 11
33.035980
 21
23.447159
  0
LINE
  8
2
  6
CONTINUOUS
 10
33.003348
 20
23.695020
 11
32.970717
 21
23.447159
  0
LINE
  8
2
  6
CONTINUOUS
 10
33.003348
 20
20.695020
 11
33.003348
 21
20.695020
  0
LINE
  8
2
  6
CONTINUOUS
 10
33.003348
 20
23.695020
 11
33.003348
 21
23.695020
  0
CIRCLE
  8
2
  6
CONTINUOUS
 10
33.003348
 20
21.895020
 40
0.041625
  0
CIRCLE
  8
2
  6
CONTINUOUS
 10
33.003348
 20
21.895020
 40
0.020750
  0
LINE
  8
6
  6
CONTINUOUS
 10
31.650150
 20
21.795020
 11
31.650150
 21
21.895020
  0
LINE
  8
6
  6
CONTINUOUS
 10
31.650150
 20
21.895020
 11
35.710150
 21
21.895020
  0
LINE
  8
6
  6
CONTINUOUS
 10
35.710150
 20
21.895020
 11
35.710150
 21
21.755020
  0
POLYLINE
  8
2
  6
CONTINUOUS
 66
     1
  0
VERTEX
  8
2
  6
CONTINUOUS
 10
30.279471
 20
44.539697
  0
VERTEX
  8
2
  6
CONTINUOUS
 10
32.327024
 20
44.539697
  0
VERTEX
  8
2
  6
CONTINUOUS
 10
32.818437
 20
44.093785
  0
VERTEX
  8
2
  6
CONTINUOUS
 10
32.612952
 20
44.236180
  0
VERTEX
  8
2
  6
CONTINUOUS
 10
32.818437
 20
44.093785
  0
VERTEX
  8
2
  6
CONTINUOUS
 10
32.656809
 20
44.284511
  0
SEQEND
  8
2
  6
CONTINUOUS
  0
POLYLINE
  8
2
  6
CONTINUOUS
 66
     1
  0
VERTEX
  8
2
  6
CONTINUOUS
 10
18.653086
 20
46.267959
  0
VERTEX
  8
2
  6
CONTINUOUS
 10
21.162311
 20
46.267959
  0
VERTEX
  8
2
  6
CONTINUOUS
 10
21.567271
 20
45.712845
  0
VERTEX
  8
2
  6
CONTINUOUS
 10
21.394832
 20
45.893854
  0
VERTEX
  8
2
  6
CONTINUOUS
 10
21.567271
 20
45.712845
  0
VERTEX
  8
2
  6
CONTINUOUS
 10
21.447556
 20
45.932317
  0
SEQEND
  8
2
  6
CONTINUOUS
  0
POLYLINE
  8
2
  6
CONTINUOUS
 66
     1
  0
VERTEX
  8
2
  6
CONTINUOUS
 10
69.513882
 20
44.525583
  0
VERTEX
  8
2
  6
CONTINUOUS
 10
67.361677
 20
44.525583
  0
VERTEX
  8
2
  6
CONTINUOUS
 10
66.929910
 20
44.070570
  0
VERTEX
  8
2
  6
CONTINUOUS
 10
67.076851
 20
44.272829
  0
VERTEX
  8
2
  6
CONTINUOUS
 10
66.929910
 20
44.070570
  0
VERTEX
  8
2
  6
CONTINUOUS
 10
67.124192
 20
44.227906
  0
SEQEND
  8
2
  6
CONTINUOUS
  0
POLYLINE
  8
2
  6
CONTINUOUS
 66
     1
  0
VERTEX
  8
2
  6
CONTINUOUS
 10
80.687214
 20
46.267959
  0
VERTEX
  8
2
  6
CONTINUOUS
 10
78.177989
 20
46.267959
  0
VERTEX
  8
2
  6
CONTINUOUS
 10
77.773029
 20
45.712845
  0
VERTEX
  8
2
  6
CONTINUOUS
 10
77.892744
 20
45.932317
  0
VERTEX
  8
2
  6
CONTINUOUS
 10
77.773029
 20
45.712845
  0
VERTEX
  8
2
  6
CONTINUOUS
 10
77.945468
 20
45.893854
  0
SEQEND
  8
2
  6
CONTINUOUS
  0
POLYLINE
  8
2
  6
CONTINUOUS
 66
     1
  0
VERTEX
  8
2
  6
CONTINUOUS
 10
14.269327
 20
40.761701
  0
VERTEX
  8
2
  6
CONTINUOUS
 10
11.980082
 20
40.761701
  0
VERTEX
  8
2
  6
CONTINUOUS
 10
11.356293
 20
40.131856
  0
VERTEX
  8
2
  6
CONTINUOUS
 10
11.507523
 20
40.330927
  0
VERTEX
  8
2
  6
CONTINUOUS
 10
11.356293
 20
40.131856
  0
VERTEX
  8
2
  6
CONTINUOUS
 10
11.553893
 20
40.285003
  0
SEQEND
  8
2
  6
CONTINUOUS
  0
POLYLINE
  8
2
  6
CONTINUOUS
 66
     1
  0
VERTEX
  8
2
  6
CONTINUOUS
 10
55.977715
 20
32.534959
  0
VERTEX
  8
2
  6
CONTINUOUS
 10
53.025646
 20
32.534856
  0
VERTEX
  8
2
  6
CONTINUOUS
 10
52.268679
 20
32.089973
  0
VERTEX
  8
2
  6
CONTINUOUS
 10
52.465834
 20
32.243694
  0
VERTEX
  8
2
  6
CONTINUOUS
 10
52.268679
 20
32.089973
  0
VERTEX
  8
2
  6
CONTINUOUS
 10
52.498902
 20
32.187429
  0
SEQEND
  8
2
  6
CONTINUOUS
  0
LINE
  8
2
  6
CONTINUOUS
 10
48.554809
 20
18.255020
 11
48.554809
 21
19.495020
  0
LINE
  8
2
  6
CONTINUOUS
 10
48.554809
 20
18.255020
 11
48.522178
 21
18.502881
  0
LINE
  8
2
  6
CONTINUOUS
 10
48.554809
 20
18.255020
 11
48.587441
 21
18.502881
  0
LINE
  8
2
  6
CONTINUOUS
 10
48.554809
 20
19.495020
 11
48.587441
 21
19.247159
  0
LINE
  8
2
  6
CONTINUOUS
 10
48.554809
 20
19.495020
 11
48.522178
 21
19.247159
  0
LINE
  8
2
  6
CONTINUOUS
 10
49.097365
 20
18.255020
 11
49.097365
 21
18.255020
  0
LINE
  8
2
  6
CONTINUOUS
 10
49.097365
 20
19.495020
 11
49.097365
 21
19.495020
  0
CIRCLE
  8
2
  6
CONTINUOUS
 10
48.554809
 20
18.859020
 40
0.041625
  0
CIRCLE
  8
2
  6
CONTINUOUS
 10
48.554809
 20
18.859020
 40
0.020750
  0
LINE
  8
6
  6
CONTINUOUS
 10
47.890819
 20
18.719020
 11
47.890819
 21
18.859020
  0
LINE
  8
6
  6
CONTINUOUS
 10
47.890819
 20
18.859020
 11
51.510819
 21
18.859020
  0
LINE
  8
6
  6
CONTINUOUS
 10
51.510819
 20
18.859020
 11
51.510819
 21
18.719020
  0
POLYLINE
  8
2
  6
CONTINUOUS
 66
     1
  0
VERTEX
  8
2
  6
CONTINUOUS
 10
26.237988
 20
12.419071
  0
VERTEX
  8
2
  6
CONTINUOUS
 10
24.032257
 20
12.419071
  0
VERTEX
  8
2
  6
CONTINUOUS
 10
23.475328
 20
11.752222
  0
VERTEX
  8
2
  6
CONTINUOUS
 10
23.609165
 20
11.963380
  0
VERTEX
  8
2
  6
CONTINUOUS
 10
23.475328
 20
11.752222
  0
VERTEX
  8
2
  6
CONTINUOUS
 10
23.659256
 20
11.921546
  0
SEQEND
  8
2
  6
CONTINUOUS
  0
POLYLINE
  8
2
  6
CONTINUOUS
 66
     1
  0
VERTEX
  8
2
  6
CONTINUOUS
 10
73.102312
 20
12.419071
  0
VERTEX
  8
2
  6
CONTINUOUS
 10
75.308043
 20
12.419071
  0
VERTEX
  8
2
  6
CONTINUOUS
 10
75.864972
 20
11.752222
  0
VERTEX
  8
2
  6
CONTINUOUS
 10
75.681044
 20
11.921546
  0
VERTEX
  8
2
  6
CONTINUOUS
 10
75.864972
 20
11.752222
  0
VERTEX
  8
2
  6
CONTINUOUS
 10
75.731135
 20
11.963380
  0
SEQEND
  8
2
  6
CONTINUOUS
  0
POLYLINE
  8
2
  6
CONTINUOUS
 66
     1
  0
VERTEX
  8
2
  6
CONTINUOUS
 10
22.460349
 20
19.883312
  0
VERTEX
  8
2
  6
CONTINUOUS
 10
20.254618
 20
19.883312
  0
VERTEX
  8
2
  6
CONTINUOUS
 10
19.697690
 20
19.216463
  0
VERTEX
  8
2
  6
CONTINUOUS
 10
19.831527
 20
19.427621
  0
VERTEX
  8
2
  6
CONTINUOUS
 10
19.697690
 20
19.216463
  0
VERTEX
  8
2
  6
CONTINUOUS
 10
19.881618
 20
19.385787
  0
SEQEND
  8
2
  6
CONTINUOUS
  0
POLYLINE
  8
2
  6
CONTINUOUS
 66
     1
  0
VERTEX
  8
2
  6
CONTINUOUS
 10
76.879951
 20
19.883312
  0
VERTEX
  8
2
  6
CONTINUOUS
 10
79.085682
 20
19.883312
  0
VERTEX
  8
2
  6
CONTINUOUS
 10
79.642610
 20
19.216463
  0
VERTEX
  8
2
  6
CONTINUOUS
 10
79.458682
 20
19.385787
  0
VERTEX
  8
2
  6
CONTINUOUS
 10
79.642610
 20
19.216463
  0
VERTEX
  8
2
  6
CONTINUOUS
 10
79.508773
 20
19.427621
  0
SEQEND
  8
2
  6
CONTINUOUS
  0
LINE
  8
2
  6
CONTINUOUS
 10
28.420150
 20
24.115266
 11
30.765726
 21
24.115266
  0
LINE
  8
2
  6
CONTINUOUS
 10
28.670150
 20
23.945020
 11
28.670150
 21
24.365266
  0
LINE
  8
2
  6
CONTINUOUS
 10
30.515726
 20
24.908037
 11
30.515726
 21
23.865266
  0
LINE
  8
2
  6
CONTINUOUS
 10
28.581762
 20
24.026878
 11
28.758538
 21
24.203655
  0
LINE
  8
2
  6
CONTINUOUS
 10
30.427338
 20
24.026878
 11
30.604115
 21
24.203655
  0
LINE
  8
2
  6
CONTINUOUS
 10
28.670150
 20
23.695020
 11
28.670150
 21
23.695020
  0
LINE
  8
2
  6
CONTINUOUS
 10
30.515726
 20
25.158037
 11
30.515726
 21
25.158037
  0
LINE
  8
2
  6
CONTINUOUS
 10
22.487703
 20
39.187619
 11
25.320150
 21
39.187619
  0
LINE
  8
2
  6
CONTINUOUS
 10
22.737703
 20
39.984657
 11
22.737703
 21
38.937619
  0
LINE
  8
2
  6
CONTINUOUS
 10
25.070150
 20
39.884657
 11
25.070150
 21
38.937619
  0
LINE
  8
2
  6
CONTINUOUS
 10
22.649315
 20
39.099230
 11
22.826092
 21
39.276007
  0
LINE
  8
2
  6
CONTINUOUS
 10
24.981762
 20
39.099230
 11
25.158539
 21
39.276007
  0
LINE
  8
2
  6
CONTINUOUS
 10
22.737703
 20
40.234657
 11
22.737703
 21
40.234657
  0
LINE
  8
2
  6
CONTINUOUS
 10
25.070150
 20
40.134657
 11
25.070150
 21
40.134657
  0
LINE
  8
2
  6
CONTINUOUS
 10
72.382643
 20
23.813038
 11
72.382643
 21
25.969434
  0
LINE
  8
2
  6
CONTINUOUS
 10
72.382643
 20
23.813038
 11
72.350012
 21
24.060900
  0
LINE
  8
2
  6
CONTINUOUS
 10
72.382643
 20
23.813038
 11
72.415275
 21
24.060900
  0
LINE
  8
2
  6
CONTINUOUS
 10
72.382643
 20
25.969434
 11
72.415275
 21
25.721572
  0
LINE
  8
2
  6
CONTINUOUS
 10
72.382643
 20
25.969434
 11
72.350012
 21
25.721572
  0
LINE
  8
2
  6
CONTINUOUS
 10
72.056612
 20
23.813038
 11
72.056612
 21
23.813038
  0
LINE
  8
2
  6
CONTINUOUS
 10
72.056612
 20
25.969434
 11
72.056612
 21
25.969434
  0
CIRCLE
  8
2
  6
CONTINUOUS
 10
72.382643
 20
25.194560
 40
0.041625
  0
CIRCLE
  8
2
  6
CONTINUOUS
 10
72.382643
 20
25.194560
 40
0.020750
  0
LINE
  8
6
  6
CONTINUOUS
 10
68.803116
 20
25.034560
 11
68.803116
 21
25.194560
  0
LINE
  8
6
  6
CONTINUOUS
 10
68.803116
 20
25.194560
 11
73.683116
 21
25.194560
  0
LINE
  8
6
  6
CONTINUOUS
 10
73.683116
 20
25.194560
 11
73.683116
 21
25.034560
  0
LINE
  8
2
  6
CONTINUOUS
 10
26.838884
 20
23.695020
 11
26.838884
 21
25.851415
  0
LINE
  8
2
  6
CONTINUOUS
 10
26.838884
 20
23.695020
 11
26.806253
 21
23.942881
  0
LINE
  8
2
  6
CONTINUOUS
 10
26.838884
 20
23.695020
 11
26.871516
 21
23.942881
  0
LINE
  8
2
  6
CONTINUOUS
 10
26.838884
 20
25.851415
 11
26.871516
 21
25.603554
  0
LINE
  8
2
  6
CONTINUOUS
 10
26.838884
 20
25.851415
 11
26.806253
 21
25.603554
  0
LINE
  8
2
  6
CONTINUOUS
 10
27.262230
 20
23.695020
 11
27.262230
 21
23.695020
  0
LINE
  8
2
  6
CONTINUOUS
 10
27.262230
 20
25.851415
 11
27.262230
 21
25.851415
  0
CIRCLE
  8
2
  6
CONTINUOUS
 10
26.838884
 20
25.224758
 40
0.041625
  0
CIRCLE
  8
2
  6
CONTINUOUS
 10
26.838884
 20
25.224758
 40
0.020750
  0
LINE
  8
6
  6
CONTINUOUS
 10
25.635726
 20
25.064758
 11
25.635726
 21
25.224758
  0
LINE
  8
6
  6
CONTINUOUS
 10
25.635726
 20
25.224758
 11
30.515726
 21
25.224758
  0
LINE
  8
6
  6
CONTINUOUS
 10
30.515726
 20
25.224758
 11
30.515726
 21
25.064758
  0
LINE
  8
2
  6
CONTINUOUS
 10
70.920150
 20
24.115266
 11
68.574574
 21
24.115266
  0
LINE
  8
2
  6
CONTINUOUS
 10
70.670150
 20
23.945020
 11
70.670150
 21
24.365266
  0
LINE
  8
2
  6
CONTINUOUS
 10
68.824574
 20
24.908037
 11
68.824574
 21
23.865266
  0
LINE
  8
2
  6
CONTINUOUS
 10
70.758538
 20
24.203655
 11
70.581762
 21
24.026878
  0
LINE
  8
2
  6
CONTINUOUS
 10
68.912962
 20
24.203655
 11
68.736185
 21
24.026878
  0
LINE
  8
2
  6
CONTINUOUS
 10
70.670150
 20
23.695020
 11
70.670150
 21
23.695020
  0
LINE
  8
2
  6
CONTINUOUS
 10
68.824574
 20
25.158037
 11
68.824574
 21
25.158037
  0
LINE
  8
2
  6
CONTINUOUS
 10
76.852597
 20
39.187619
 11
74.020150
 21
39.187619
  0
LINE
  8
2
  6
CONTINUOUS
 10
76.602597
 20
39.984657
 11
76.602597
 21
38.937619
  0
LINE
  8
2
  6
CONTINUOUS
 10
74.270150
 20
39.884657
 11
74.270150
 21
38.937619
  0
LINE
  8
2
  6
CONTINUOUS
 10
76.690985
 20
39.276007
 11
76.514208
 21
39.099230
  0
LINE
  8
2
  6
CONTINUOUS
 10
74.358538
 20
39.276007
 11
74.181761
 21
39.099230
  0
LINE
  8
2
  6
CONTINUOUS
 10
76.602597
 20
40.234657
 11
76.602597
 21
40.234657
  0
LINE
  8
2
  6
CONTINUOUS
 10
74.270150
 20
40.134657
 11
74.270150
 21
40.134657
  0
LINE
  8
2
  6
CONTINUOUS
 10
65.720150
 20
24.867040
 11
61.760150
 21
24.867040
  0
LINE
  8
2
  6
CONTINUOUS
 10
65.470150
 20
24.993973
 11
65.470150
 21
24.617040
  0
LINE
  8
2
  6
CONTINUOUS
 10
62.010150
 20
25.472394
 11
62.010150
 21
24.617040
  0
LINE
  8
2
  6
CONTINUOUS
 10
65.558538
 20
24.955428
 11
65.381762
 21
24.778652
  0
LINE
  8
2
  6
CONTINUOUS
 10
62.098538
 20
24.955428
 11
61.921762
 21
24.778652
  0
LINE
  8
2
  6
CONTINUOUS
 10
65.470150
 20
25.243973
 11
65.470150
 21
25.243973
  0
LINE
  8
2
  6
CONTINUOUS
 10
62.010150
 20
25.722394
 11
62.010150
 21
25.722394
  0
LINE
  8
2
  6
CONTINUOUS
 10
21.896881
 20
44.990586
 11
21.896881
 21
46.678086
  0
LINE
  8
2
  6
CONTINUOUS
 10
21.896881
 20
44.990586
 11
21.864249
 21
45.238448
  0
LINE
  8
2
  6
CONTINUOUS
 10
21.896881
 20
44.990586
 11
21.929512
 21
45.238448
  0
LINE
  8
2
  6
CONTINUOUS
 10
21.896881
 20
46.678086
 11
21.929512
 21
46.430225
  0
LINE
  8
2
  6
CONTINUOUS
 10
21.896881
 20
46.678086
 11
21.864249
 21
46.430225
  0
LINE
  8
2
  6
CONTINUOUS
 10
21.824208
 20
44.990586
 11
21.824208
 21
44.990586
  0
LINE
  8
2
  6
CONTINUOUS
 10
21.824208
 20
46.678086
 11
21.824208
 21
46.678086
  0
CIRCLE
  8
2
  6
CONTINUOUS
 10
21.896881
 20
45.630262
 40
0.041625
  0
CIRCLE
  8
2
  6
CONTINUOUS
 10
21.896881
 20
45.630262
 40
0.020750
  0
LINE
  8
6
  6
CONTINUOUS
 10
21.190939
 20
45.530262
 11
21.190939
 21
45.630262
  0
LINE
  8
6
  6
CONTINUOUS
 10
21.190939
 20
45.630262
 11
23.090939
 21
45.630262
  0
LINE
  8
6
  6
CONTINUOUS
 10
23.090939
 20
45.630262
 11
23.090939
 21
44.930262
  0
LINE
  8
2
  6
CONTINUOUS
 10
33.134949
 20
43.365020
 11
33.134949
 21
44.990586
  0
LINE
  8
2
  6
CONTINUOUS
 10
33.134949
 20
43.365020
 11
33.102317
 21
43.612881
  0
LINE
  8
2
  6
CONTINUOUS
 10
33.134949
 20
43.365020
 11
33.167580
 21
43.612881
  0
LINE
  8
2
  6
CONTINUOUS
 10
33.134949
 20
44.990586
 11
33.167580
 21
44.742725
  0
LINE
  8
2
  6
CONTINUOUS
 10
33.134949
 20
44.990586
 11
33.102317
 21
44.742725
  0
LINE
  8
2
  6
CONTINUOUS
 10
32.625336
 20
43.365020
 11
32.625336
 21
43.365020
  0
LINE
  8
2
  6
CONTINUOUS
 10
32.625336
 20
44.990586
 11
32.625336
 21
44.990586
  0
CIRCLE
  8
2
  6
CONTINUOUS
 10
33.134949
 20
44.002339
 40
0.041625
  0
CIRCLE
  8
2
  6
CONTINUOUS
 10
33.134949
 20
44.002339
 40
0.020750
  0
LINE
  8
6
  6
CONTINUOUS
 10
32.028019
 20
43.902339
 11
32.028019
 21
44.002339
  0
LINE
  8
6
  6
CONTINUOUS
 10
32.028019
 20
44.002339
 11
33.820159
 21
44.002339
  0
LINE
  8
6
  6
CONTINUOUS
 10
33.820159
 20
44.002339
 11
33.820159
 21
43.302339
  0
LINE
  8
2
  6
CONTINUOUS
 10
23.206390
 20
10.950587
 11
23.206390
 21
12.494182
  0
LINE
  8
2
  6
CONTINUOUS
 10
23.206390
 20
10.950587
 11
23.173759
 21
11.198448
  0
LINE
  8
2
  6
CONTINUOUS
 10
23.206390
 20
10.950587
 11
23.239022
 21
11.198448
  0
LINE
  8
2
  6
CONTINUOUS
 10
23.206390
 20
12.494182
 11
23.239022
 21
12.246321
  0
LINE
  8
2
  6
CONTINUOUS
 10
23.206390
 20
12.494182
 11
23.173759
 21
12.246321
  0
LINE
  8
2
  6
CONTINUOUS
 10
23.120089
 20
10.950587
 11
23.120089
 21
10.950587
  0
LINE
  8
2
  6
CONTINUOUS
 10
23.120089
 20
12.494182
 11
23.120089
 21
12.494182
  0
CIRCLE
  8
2
  6
CONTINUOUS
 10
23.206390
 20
11.609910
 40
0.041625
  0
CIRCLE
  8
2
  6
CONTINUOUS
 10
23.206390
 20
11.609910
 40
0.020750
  0
LINE
  8
6
  6
CONTINUOUS
 10
22.520150
 20
10.909910
 11
22.520150
 21
11.609910
  0
LINE
  8
6
  6
CONTINUOUS
 10
22.520150
 20
11.609910
 11
24.320150
 21
11.609910
  0
LINE
  8
6
  6
CONTINUOUS
 10
24.320150
 20
11.609910
 11
24.320150
 21
11.509910
  0
LINE
  8
2
  6
CONTINUOUS
 10
76.077820
 20
10.950587
 11
76.077820
 21
12.494182
  0
LINE
  8
2
  6
CONTINUOUS
 10
76.077820
 20
10.950587
 11
76.045188
 21
11.198448
  0
LINE
  8
2
  6
CONTINUOUS
 10
76.077820
 20
10.950587
 11
76.110452
 21
11.198448
  0
LINE
  8
2
  6
CONTINUOUS
 10
76.077820
 20
12.494182
 11
76.110452
 21
12.246321
  0
LINE
  8
2
  6
CONTINUOUS
 10
76.077820
 20
12.494182
 11
76.045188
 21
12.246321
  0
LINE
  8
2
  6
CONTINUOUS
 10
76.220211
 20
10.950587
 11
76.220211
 21
10.950587
  0
LINE
  8
2
  6
CONTINUOUS
 10
76.220211
 20
12.494182
 11
76.220211
 21
12.494182
  0
CIRCLE
  8
2
  6
CONTINUOUS
 10
76.077820
 20
11.609910
 40
0.041625
  0
CIRCLE
  8
2
  6
CONTINUOUS
 10
76.077820
 20
11.609910
 40
0.020750
  0
LINE
  8
6
  6
CONTINUOUS
 10
75.020150
 20
11.509910
 11
75.020150
 21
11.609910
  0
LINE
  8
6
  6
CONTINUOUS
 10
75.020150
 20
11.609910
 11
76.820150
 21
11.609910
  0
LINE
  8
6
  6
CONTINUOUS
 10
76.820150
 20
11.609910
 11
76.820150
 21
10.909910
  0
LINE
  8
2
  6
CONTINUOUS
 10
80.073558
 20
18.550586
 11
80.073558
 21
19.707907
  0
LINE
  8
2
  6
CONTINUOUS
 10
80.073558
 20
18.550586
 11
80.040927
 21
18.798448
  0
LINE
  8
2
  6
CONTINUOUS
 10
80.073558
 20
18.550586
 11
80.106190
 21
18.798448
  0
LINE
  8
2
  6
CONTINUOUS
 10
80.073558
 20
19.707907
 11
80.106190
 21
19.460046
  0
LINE
  8
2
  6
CONTINUOUS
 10
80.073558
 20
19.707907
 11
80.040927
 21
19.460046
  0
LINE
  8
2
  6
CONTINUOUS
 10
80.073558
 20
18.550586
 11
80.073558
 21
18.550586
  0
LINE
  8
2
  6
CONTINUOUS
 10
80.073558
 20
19.707907
 11
80.073558
 21
19.707907
  0
CIRCLE
  8
2
  6
CONTINUOUS
 10
80.073558
 20
19.155771
 40
0.041625
  0
CIRCLE
  8
2
  6
CONTINUOUS
 10
80.073558
 20
19.155771
 40
0.020750
  0
LINE
  8
6
  6
CONTINUOUS
 10
78.580150
 20
19.075771
 11
78.580150
 21
19.155771
  0
LINE
  8
6
  6
CONTINUOUS
 10
78.580150
 20
19.155771
 11
80.820150
 21
19.155771
  0
LINE
  8
6
  6
CONTINUOUS
 10
80.820150
 20
19.155771
 11
80.820150
 21
18.475771
  0
LINE
  8
2
  6
CONTINUOUS
 10
19.209885
 20
18.550586
 11
19.209885
 21
19.707907
  0
LINE
  8
2
  6
CONTINUOUS
 10
19.209885
 20
18.550586
 11
19.177254
 21
18.798448
  0
LINE
  8
2
  6
CONTINUOUS
 10
19.209885
 20
18.550586
 11
19.242517
 21
18.798448
  0
LINE
  8
2
  6
CONTINUOUS
 10
19.209885
 20
19.707907
 11
19.242517
 21
19.460046
  0
LINE
  8
2
  6
CONTINUOUS
 10
19.209885
 20
19.707907
 11
19.177254
 21
19.460046
  0
LINE
  8
2
  6
CONTINUOUS
 10
19.266742
 20
18.550586
 11
19.266742
 21
18.550586
  0
LINE
  8
2
  6
CONTINUOUS
 10
19.266742
 20
19.707907
 11
19.266742
 21
19.707907
  0
CIRCLE
  8
2
  6
CONTINUOUS
 10
19.209885
 20
19.150989
 40
0.041625
  0
CIRCLE
  8
2
  6
CONTINUOUS
 10
19.209885
 20
19.150989
 40
0.020750
  0
LINE
  8
6
  6
CONTINUOUS
 10
18.520150
 20
18.470989
 11
18.520150
 21
19.150989
  0
LINE
  8
6
  6
CONTINUOUS
 10
18.520150
 20
19.150989
 11
20.760150
 21
19.150989
  0
LINE
  8
6
  6
CONTINUOUS
 10
20.760150
 20
19.150989
 11
20.760150
 21
19.070989
  0
POLYLINE
  8
2
  6
CONTINUOUS
 66
     1
  0
VERTEX
  8
2
  6
CONTINUOUS
 10
85.070973
 20
40.761701
  0
VERTEX
  8
2
  6
CONTINUOUS
 10
87.360218
 20
40.761701
  0
VERTEX
  8
2
  6
CONTINUOUS
 10
87.984007
 20
40.131856
  0
VERTEX
  8
2
  6
CONTINUOUS
 10
87.786407
 20
40.285003
  0
VERTEX
  8
2
  6
CONTINUOUS
 10
87.984007
 20
40.131856
  0
VERTEX
  8
2
  6
CONTINUOUS
 10
87.832777
 20
40.330927
  0
SEQEND
  8
2
  6
CONTINUOUS
  0
LINE
  8
2
  6
CONTINUOUS
 10
88.396222
 20
39.350586
 11
88.396222
 21
41.074515
  0
LINE
  8
2
  6
CONTINUOUS
 10
88.396222
 20
39.350586
 11
88.363590
 21
39.598448
  0
LINE
  8
2
  6
CONTINUOUS
 10
88.396222
 20
39.350586
 11
88.428853
 21
39.598448
  0
LINE
  8
2
  6
CONTINUOUS
 10
88.396222
 20
41.074515
 11
88.428853
 21
40.826653
  0
LINE
  8
2
  6
CONTINUOUS
 10
88.396222
 20
41.074515
 11
88.363590
 21
40.826653
  0
LINE
  8
2
  6
CONTINUOUS
 10
88.396222
 20
39.350586
 11
88.396222
 21
39.350586
  0
LINE
  8
2
  6
CONTINUOUS
 10
88.396222
 20
41.074515
 11
88.396222
 21
41.074515
  0
CIRCLE
  8
2
  6
CONTINUOUS
 10
88.396222
 20
40.044890
 40
0.041625
  0
CIRCLE
  8
2
  6
CONTINUOUS
 10
88.396222
 20
40.044890
 40
0.020750
  0
LINE
  8
6
  6
CONTINUOUS
 10
87.196161
 20
39.944890
 11
87.196161
 21
40.044890
  0
LINE
  8
6
  6
CONTINUOUS
 10
87.196161
 20
40.044890
 11
88.996161
 21
40.044890
  0
LINE
  8
6
  6
CONTINUOUS
 10
88.996161
 20
40.044890
 11
88.996161
 21
39.344890
  0
LINE
  8
2
  6
CONTINUOUS
 10
77.514185
 20
44.990586
 11
77.514185
 21
46.678086
  0
LINE
  8
2
  6
CONTINUOUS
 10
77.514185
 20
44.990586
 11
77.481553
 21
45.238448
  0
LINE
  8
2
  6
CONTINUOUS
 10
77.514185
 20
44.990586
 11
77.546816
 21
45.238448
  0
LINE
  8
2
  6
CONTINUOUS
 10
77.514185
 20
46.678086
 11
77.546816
 21
46.430225
  0
LINE
  8
2
  6
CONTINUOUS
 10
77.514185
 20
46.678086
 11
77.481553
 21
46.430225
  0
LINE
  8
2
  6
CONTINUOUS
 10
77.516092
 20
44.990586
 11
77.516092
 21
44.990586
  0
LINE
  8
2
  6
CONTINUOUS
 10
77.516092
 20
46.678086
 11
77.516092
 21
46.678086
  0
CIRCLE
  8
2
  6
CONTINUOUS
 10
77.514185
 20
45.655321
 40
0.041625
  0
CIRCLE
  8
2
  6
CONTINUOUS
 10
77.514185
 20
45.655321
 40
0.020750
  0
LINE
  8
6
  6
CONTINUOUS
 10
76.249361
 20
44.955321
 11
76.249361
 21
45.655321
  0
LINE
  8
6
  6
CONTINUOUS
 10
76.249361
 20
45.655321
 11
78.149361
 21
45.655321
  0
LINE
  8
6
  6
CONTINUOUS
 10
78.149361
 20
45.655321
 11
78.149361
 21
45.555321
  0
LINE
  8
2
  6
CONTINUOUS
 10
66.697258
 20
43.365020
 11
66.697258
 21
44.990586
  0
LINE
  8
2
  6
CONTINUOUS
 10
66.697258
 20
43.365020
 11
66.664627
 21
43.612881
  0
LINE
  8
2
  6
CONTINUOUS
 10
66.697258
 20
43.365020
 11
66.729890
 21
43.612881
  0
LINE
  8
2
  6
CONTINUOUS
 10
66.697258
 20
44.990586
 11
66.729890
 21
44.742725
  0
LINE
  8
2
  6
CONTINUOUS
 10
66.697258
 20
44.990586
 11
66.664627
 21
44.742725
  0
LINE
  8
2
  6
CONTINUOUS
 10
66.714964
 20
43.365020
 11
66.714964
 21
43.365020
  0
LINE
  8
2
  6
CONTINUOUS
 10
66.714964
 20
44.990586
 11
66.714964
 21
44.990586
  0
CIRCLE
  8
2
  6
CONTINUOUS
 10
66.697258
 20
44.001193
 40
0.041625
  0
CIRCLE
  8
2
  6
CONTINUOUS
 10
66.697258
 20
44.001193
 40
0.020750
  0
LINE
  8
6
  6
CONTINUOUS
 10
65.512281
 20
43.301193
 11
65.512281
 21
44.001193
  0
LINE
  8
6
  6
CONTINUOUS
 10
65.512281
 20
44.001193
 11
67.304421
 21
44.001193
  0
LINE
  8
6
  6
CONTINUOUS
 10
67.304421
 20
44.001193
 11
67.304421
 21
43.901193
  0
LINE
  8
2
  6
CONTINUOUS
 10
10.944078
 20
39.350586
 11
10.944078
 21
41.074515
  0
LINE
  8
2
  6
CONTINUOUS
 10
10.944078
 20
39.350586
 11
10.911447
 21
39.598448
  0
LINE
  8
2
  6
CONTINUOUS
 10
10.944078
 20
39.350586
 11
10.976710
 21
39.598448
  0
LINE
  8
2
  6
CONTINUOUS
 10
10.944078
 20
41.074515
 11
10.976710
 21
40.826653
  0
LINE
  8
2
  6
CONTINUOUS
 10
10.944078
 20
41.074515
 11
10.911447
 21
40.826653
  0
LINE
  8
2
  6
CONTINUOUS
 10
10.944078
 20
39.350586
 11
10.944078
 21
39.350586
  0
LINE
  8
2
  6
CONTINUOUS
 10
10.944078
 20
41.074515
 11
10.944078
 21
41.074515
  0
CIRCLE
  8
2
  6
CONTINUOUS
 10
10.944078
 20
40.044890
 40
0.041625
  0
CIRCLE
  8
2
  6
CONTINUOUS
 10
10.944078
 20
40.044890
 40
0.020750
  0
LINE
  8
6
  6
CONTINUOUS
 10
10.344139
 20
39.344890
 11
10.344139
 21
40.044890
  0
LINE
  8
6
  6
CONTINUOUS
 10
10.344139
 20
40.044890
 11
12.144139
 21
40.044890
  0
LINE
  8
6
  6
CONTINUOUS
 10
12.144139
 20
40.044890
 11
12.144139
 21
39.944890
  0
LINE
  8
2
  6
CONTINUOUS
 10
54.192221
 20
7.695020
 11
54.192221
 21
18.365020
  0
LINE
  8
2
  6
CONTINUOUS
 10
54.192221
 20
7.695020
 11
54.159589
 21
7.942881
  0
LINE
  8
2
  6
CONTINUOUS
 10
54.192221
 20
7.695020
 11
54.224852
 21
7.942881
  0
LINE
  8
2
  6
CONTINUOUS
 10
54.192221
 20
18.365020
 11
54.224852
 21
18.117159
  0
LINE
  8
2
  6
CONTINUOUS
 10
54.192221
 20
18.365020
 11
54.159589
 21
18.117159
  0
LINE
  8
2
  6
CONTINUOUS
 10
55.883506
 20
7.695020
 11
55.883506
 21
7.695020
  0
LINE
  8
2
  6
CONTINUOUS
 10
55.883506
 20
18.365020
 11
55.883506
 21
18.365020
  0
CIRCLE
  8
2
  6
CONTINUOUS
 10
54.192221
 20
12.899224
 40
0.041625
  0
CIRCLE
  8
2
  6
CONTINUOUS
 10
54.192221
 20
12.899224
 40
0.020750
  0
LINE
  8
6
  6
CONTINUOUS
 10
52.616676
 20
12.759224
 11
52.616676
 21
12.899224
  0
LINE
  8
6
  6
CONTINUOUS
 10
52.616676
 20
12.899224
 11
57.516676
 21
12.899224
  0
LINE
  8
6
  6
CONTINUOUS
 10
57.516676
 20
12.899224
 11
57.516676
 21
12.739224
  0
LINE
  8
2
  6
CONTINUOUS
 10
43.468053
 20
7.695020
 11
43.468053
 21
18.365020
  0
LINE
  8
2
  6
CONTINUOUS
 10
43.468053
 20
7.695020
 11
43.435422
 21
7.942881
  0
LINE
  8
2
  6
CONTINUOUS
 10
43.468053
 20
7.695020
 11
43.500685
 21
7.942881
  0
LINE
  8
2
  6
CONTINUOUS
 10
43.468053
 20
18.365020
 11
43.500685
 21
18.117159
  0
LINE
  8
2
  6
CONTINUOUS
 10
43.468053
 20
18.365020
 11
43.435422
 21
18.117159
  0
LINE
  8
2
  6
CONTINUOUS
 10
43.456794
 20
7.695020
 11
43.456794
 21
7.695020
  0
LINE
  8
2
  6
CONTINUOUS
 10
43.456794
 20
18.365020
 11
43.456794
 21
18.365020
  0
CIRCLE
  8
2
  6
CONTINUOUS
 10
43.468053
 20
12.899224
 40
0.041625
  0
CIRCLE
  8
2
  6
CONTINUOUS
 10
43.468053
 20
12.899224
 40
0.020750
  0
LINE
  8
6
  6
CONTINUOUS
 10
41.823624
 20
12.739224
 11
41.823624
 21
12.899224
  0
LINE
  8
6
  6
CONTINUOUS
 10
41.823624
 20
12.899224
 11
46.723624
 21
12.899224
  0
LINE
  8
6
  6
CONTINUOUS
 10
46.723624
 20
12.899224
 11
46.723624
 21
12.759224
  0
LINE
  8
2
  6
CONTINUOUS
 10
32.616646
 20
7.695020
 11
32.616646
 21
19.295020
  0
LINE
  8
2
  6
CONTINUOUS
 10
32.616646
 20
7.695020
 11
32.584014
 21
7.942881
  0
LINE
  8
2
  6
CONTINUOUS
 10
32.616646
 20
7.695020
 11
32.649277
 21
7.942881
  0
LINE
  8
2
  6
CONTINUOUS
 10
32.616646
 20
19.295020
 11
32.649277
 21
19.047159
  0
LINE
  8
2
  6
CONTINUOUS
 10
32.616646
 20
19.295020
 11
32.584014
 21
19.047159
  0
LINE
  8
2
  6
CONTINUOUS
 10
32.856651
 20
7.695020
 11
32.856651
 21
7.695020
  0
LINE
  8
2
  6
CONTINUOUS
 10
32.856651
 20
19.295020
 11
32.856651
 21
19.295020
  0
CIRCLE
  8
2
  6
CONTINUOUS
 10
32.616646
 20
13.455020
 40
0.041625
  0
CIRCLE
  8
2
  6
CONTINUOUS
 10
32.616646
 20
13.455020
 40
0.020750
  0
LINE
  8
6
  6
CONTINUOUS
 10
31.210150
 20
13.355020
 11
31.210150
 21
13.455020
  0
LINE
  8
6
  6
CONTINUOUS
 10
31.210150
 20
13.455020
 11
36.150150
 21
13.455020
  0
LINE
  8
6
  6
CONTINUOUS
 10
36.150150
 20
13.455020
 11
36.150150
 21
13.295020
  0
LINE
  8
2
  6
CONTINUOUS
 10
51.479723
 20
26.735020
 11
51.479723
 21
31.683145
  0
LINE
  8
2
  6
CONTINUOUS
 10
51.479723
 20
26.735020
 11
51.447091
 21
26.982881
  0
LINE
  8
2
  6
CONTINUOUS
 10
51.479723
 20
26.735020
 11
51.512354
 21
26.982881
  0
LINE
  8
2
  6
CONTINUOUS
 10
51.479723
 20
31.683145
 11
51.512354
 21
31.435284
  0
LINE
  8
2
  6
CONTINUOUS
 10
51.479723
 20
31.683145
 11
51.447091
 21
31.435284
  0
LINE
  8
2
  6
CONTINUOUS
 10
51.893370
 20
26.735020
 11
51.893370
 21
26.735020
  0
LINE
  8
2
  6
CONTINUOUS
 10
51.893370
 20
31.683145
 11
51.893370
 21
31.683145
  0
CIRCLE
  8
2
  6
CONTINUOUS
 10
51.479723
 20
29.294395
 40
0.041625
  0
CIRCLE
  8
2
  6
CONTINUOUS
 10
51.479723
 20
29.294395
 40
0.020750
  0
LINE
  8
6
  6
CONTINUOUS
 10
50.760150
 20
29.194395
 11
50.760150
 21
29.294395
  0
LINE
  8
6
  6
CONTINUOUS
 10
50.760150
 20
29.294395
 11
54.160150
 21
29.294395
  0
LINE
  8
6
  6
CONTINUOUS
 10
54.160150
 20
29.294395
 11
54.160150
 21
29.194395
  0
LINE
  8
2
  6
CONTINUOUS
 10
34.159040
 20
19.295020
 11
34.159040
 21
20.295020
  0
LINE
  8
2
  6
CONTINUOUS
 10
34.159040
 20
19.295020
 11
34.126409
 21
19.542881
  0
LINE
  8
2
  6
CONTINUOUS
 10
34.159040
 20
19.295020
 11
34.191672
 21
19.542881
  0
LINE
  8
2
  6
CONTINUOUS
 10
34.159040
 20
20.295020
 11
34.191672
 21
20.047159
  0
LINE
  8
2
  6
CONTINUOUS
 10
34.159040
 20
20.295020
 11
34.126409
 21
20.047159
  0
LINE
  8
2
  6
CONTINUOUS
 10
34.280244
 20
19.295020
 11
34.280244
 21
19.295020
  0
LINE
  8
2
  6
CONTINUOUS
 10
34.280244
 20
20.295020
 11
34.280244
 21
20.295020
  0
CIRCLE
  8
2
  6
CONTINUOUS
 10
34.159040
 20
19.589349
 40
0.041625
  0
CIRCLE
  8
2
  6
CONTINUOUS
 10
34.159040
 20
19.589349
 40
0.020750
  0
LINE
  8
6
  6
CONTINUOUS
 10
33.560316
 20
18.889349
 11
33.560316
 21
19.589349
  0
LINE
  8
6
  6
CONTINUOUS
 10
33.560316
 20
19.589349
 11
35.720316
 21
19.589349
  0
LINE
  8
6
  6
CONTINUOUS
 10
35.720316
 20
19.589349
 11
35.720316
 21
19.449349
  0
LINE
  8
2
  6
CONTINUOUS
 10
54.409232
 20
18.365020
 11
54.409232
 21
20.875020
  0
LINE
  8
2
  6
CONTINUOUS
 10
54.409232
 20
18.365020
 11
54.376601
 21
18.612881
  0
LINE
  8
2
  6
CONTINUOUS
 10
54.409232
 20
18.365020
 11
54.441864
 21
18.612881
  0
LINE
  8
2
  6
CONTINUOUS
 10
54.409232
 20
20.875020
 11
54.441864
 21
20.627159
  0
LINE
  8
2
  6
CONTINUOUS
 10
54.409232
 20
20.875020
 11
54.376601
 21
20.627159
  0
LINE
  8
2
  6
CONTINUOUS
 10
55.763620
 20
18.365020
 11
55.763620
 21
18.365020
  0
LINE
  8
2
  6
CONTINUOUS
 10
55.763620
 20
20.875020
 11
55.763620
 21
20.875020
  0
CIRCLE
  8
2
  6
CONTINUOUS
 10
54.409232
 20
19.418943
 40
0.041625
  0
CIRCLE
  8
2
  6
CONTINUOUS
 10
54.409232
 20
19.418943
 40
0.020750
  0
LINE
  8
6
  6
CONTINUOUS
 10
53.030150
 20
19.278943
 11
53.030150
 21
19.418943
  0
LINE
  8
6
  6
CONTINUOUS
 10
53.030150
 20
19.418943
 11
57.130150
 21
19.418943
  0
LINE
  8
6
  6
CONTINUOUS
 10
57.130150
 20
19.418943
 11
57.130150
 21
19.258943
  0
LINE
  8
2
  6
CONTINUOUS
 10
43.149966
 20
22.230020
 11
43.149966
 21
26.295020
  0
LINE
  8
2
  6
CONTINUOUS
 10
43.149966
 20
22.230020
 11
43.117335
 21
22.477881
  0
LINE
  8
2
  6
CONTINUOUS
 10
43.149966
 20
22.230020
 11
43.182598
 21
22.477881
  0
LINE
  8
2
  6
CONTINUOUS
 10
43.149966
 20
26.295020
 11
43.182598
 21
26.047159
  0
LINE
  8
2
  6
CONTINUOUS
 10
43.149966
 20
26.295020
 11
43.117335
 21
26.047159
  0
LINE
  8
2
  6
CONTINUOUS
 10
43.149966
 20
22.230020
 11
43.149966
 21
22.230020
  0
LINE
  8
2
  6
CONTINUOUS
 10
43.149966
 20
26.295020
 11
43.149966
 21
26.295020
  0
CIRCLE
  8
2
  6
CONTINUOUS
 10
43.149966
 20
24.149734
 40
0.041625
  0
CIRCLE
  8
2
  6
CONTINUOUS
 10
43.149966
 20
24.149734
 40
0.020750
  0
LINE
  8
6
  6
CONTINUOUS
 10
41.310150
 20
24.009734
 11
41.310150
 21
24.149734
  0
LINE
  8
6
  6
CONTINUOUS
 10
41.310150
 20
24.149734
 11
46.830150
 21
24.149734
  0
LINE
  8
6
  6
CONTINUOUS
 10
46.830150
 20
24.149734
 11
46.830150
 21
24.009734
  0
LINE
  8
2
  6
CONTINUOUS
 10
43.570944
 20
18.365020
 11
43.570944
 21
20.875020
  0
LINE
  8
2
  6
CONTINUOUS
 10
43.570944
 20
18.365020
 11
43.538312
 21
18.612881
  0
LINE
  8
2
  6
CONTINUOUS
 10
43.570944
 20
18.365020
 11
43.603575
 21
18.612881
  0
LINE
  8
2
  6
CONTINUOUS
 10
43.570944
 20
20.875020
 11
43.603575
 21
20.627159
  0
LINE
  8
2
  6
CONTINUOUS
 10
43.570944
 20
20.875020
 11
43.538312
 21
20.627159
  0
LINE
  8
2
  6
CONTINUOUS
 10
43.576680
 20
18.365020
 11
43.576680
 21
18.365020
  0
LINE
  8
2
  6
CONTINUOUS
 10
43.576680
 20
20.875020
 11
43.576680
 21
20.875020
  0
CIRCLE
  8
2
  6
CONTINUOUS
 10
43.570944
 20
19.418943
 40
0.041625
  0
CIRCLE
  8
2
  6
CONTINUOUS
 10
43.570944
 20
19.418943
 40
0.020750
  0
LINE
  8
6
  6
CONTINUOUS
 10
42.210150
 20
19.258943
 11
42.210150
 21
19.418943
  0
LINE
  8
6
  6
CONTINUOUS
 10
42.210150
 20
19.418943
 11
46.310150
 21
19.418943
  0
LINE
  8
6
  6
CONTINUOUS
 10
46.310150
 20
19.418943
 11
46.310150
 21
19.278943
  0
LINE
  8
2
  6
CONTINUOUS
 10
65.113061
 20
19.295020
 11
65.113061
 21
20.295020
  0
LINE
  8
2
  6
CONTINUOUS
 10
65.113061
 20
19.295020
 11
65.080430
 21
19.542881
  0
LINE
  8
2
  6
CONTINUOUS
 10
65.113061
 20
19.295020
 11
65.145693
 21
19.542881
  0
LINE
  8
2
  6
CONTINUOUS
 10
65.113061
 20
20.295020
 11
65.145693
 21
20.047159
  0
LINE
  8
2
  6
CONTINUOUS
 10
65.113061
 20
20.295020
 11
65.080430
 21
20.047159
  0
LINE
  8
2
  6
CONTINUOUS
 10
65.060056
 20
19.295020
 11
65.060056
 21
19.295020
  0
LINE
  8
2
  6
CONTINUOUS
 10
65.060056
 20
20.295020
 11
65.060056
 21
20.295020
  0
CIRCLE
  8
2
  6
CONTINUOUS
 10
65.113061
 20
19.593800
 40
0.041625
  0
CIRCLE
  8
2
  6
CONTINUOUS
 10
65.113061
 20
19.593800
 40
0.020750
  0
LINE
  8
6
  6
CONTINUOUS
 10
63.619984
 20
19.453800
 11
63.619984
 21
19.593800
  0
LINE
  8
6
  6
CONTINUOUS
 10
63.619984
 20
19.593800
 11
65.779984
 21
19.593800
  0
LINE
  8
6
  6
CONTINUOUS
 10
65.779984
 20
19.593800
 11
65.779984
 21
18.893800
  0
LINE
  8
2
  6
CONTINUOUS
 10
63.976963
 20
7.695020
 11
63.976963
 21
19.295020
  0
LINE
  8
2
  6
CONTINUOUS
 10
63.976963
 20
7.695020
 11
63.944331
 21
7.942881
  0
LINE
  8
2
  6
CONTINUOUS
 10
63.976963
 20
7.695020
 11
64.009594
 21
7.942881
  0
LINE
  8
2
  6
CONTINUOUS
 10
63.976963
 20
19.295020
 11
64.009594
 21
19.047159
  0
LINE
  8
2
  6
CONTINUOUS
 10
63.976963
 20
19.295020
 11
63.944331
 21
19.047159
  0
LINE
  8
2
  6
CONTINUOUS
 10
66.483649
 20
7.695020
 11
66.483649
 21
7.695020
  0
LINE
  8
2
  6
CONTINUOUS
 10
66.483649
 20
19.295020
 11
66.483649
 21
19.295020
  0
CIRCLE
  8
2
  6
CONTINUOUS
 10
63.976963
 20
13.455020
 40
0.041625
  0
CIRCLE
  8
2
  6
CONTINUOUS
 10
63.976963
 20
13.455020
 40
0.020750
  0
LINE
  8
6
  6
CONTINUOUS
 10
63.190150
 20
13.295020
 11
63.190150
 21
13.455020
  0
LINE
  8
6
  6
CONTINUOUS
 10
63.190150
 20
13.455020
 11
68.130150
 21
13.455020
  0
LINE
  8
6
  6
CONTINUOUS
 10
68.130150
 20
13.455020
 11
68.130150
 21
13.355020
  0
LINE
  8
2
  6
CONTINUOUS
 10
44.782500
 20
20.875020
 11
44.782500
 21
22.015020
  0
LINE
  8
2
  6
CONTINUOUS
 10
44.782500
 20
20.875020
 11
44.749869
 21
21.122881
  0
LINE
  8
2
  6
CONTINUOUS
 10
44.782500
 20
20.875020
 11
44.815132
 21
21.122881
  0
LINE
  8
2
  6
CONTINUOUS
 10
44.782500
 20
22.015020
 11
44.815132
 21
21.767159
  0
LINE
  8
2
  6
CONTINUOUS
 10
44.782500
 20
22.015020
 11
44.749869
 21
21.767159
  0
LINE
  8
2
  6
CONTINUOUS
 10
45.040056
 20
20.875020
 11
45.040056
 21
20.875020
  0
LINE
  8
2
  6
CONTINUOUS
 10
45.040056
 20
22.015020
 11
45.040056
 21
22.015020
  0
CIRCLE
  8
2
  6
CONTINUOUS
 10
44.782500
 20
21.439734
 40
0.041625
  0
CIRCLE
  8
2
  6
CONTINUOUS
 10
44.782500
 20
21.439734
 40
0.020750
  0
LINE
  8
6
  6
CONTINUOUS
 10
44.100150
 20
20.699734
 11
44.100150
 21
21.439734
  0
LINE
  8
6
  6
CONTINUOUS
 10
44.100150
 20
21.439734
 11
46.920150
 21
21.439734
  0
LINE
  8
6
  6
CONTINUOUS
 10
46.920150
 20
21.439734
 11
46.920150
 21
21.299734
  0
LINE
  8
2
  6
CONTINUOUS
 10
54.542449
 20
20.875020
 11
54.542449
 21
22.015020
  0
LINE
  8
2
  6
CONTINUOUS
 10
54.542449
 20
20.875020
 11
54.509817
 21
21.122881
  0
LINE
  8
2
  6
CONTINUOUS
 10
54.542449
 20
20.875020
 11
54.575080
 21
21.122881
  0
LINE
  8
2
  6
CONTINUOUS
 10
54.542449
 20
22.015020
 11
54.575080
 21
21.767159
  0
LINE
  8
2
  6
CONTINUOUS
 10
54.542449
 20
22.015020
 11
54.509817
 21
21.767159
  0
LINE
  8
2
  6
CONTINUOUS
 10
54.300244
 20
20.875020
 11
54.300244
 21
20.875020
  0
LINE
  8
2
  6
CONTINUOUS
 10
54.300244
 20
22.015020
 11
54.300244
 21
22.015020
  0
CIRCLE
  8
2
  6
CONTINUOUS
 10
54.542449
 20
21.439734
 40
0.041625
  0
CIRCLE
  8
2
  6
CONTINUOUS
 10
54.542449
 20
21.439734
 40
0.020750
  0
LINE
  8
6
  6
CONTINUOUS
 10
52.420150
 20
21.299734
 11
52.420150
 21
21.439734
  0
LINE
  8
6
  6
CONTINUOUS
 10
52.420150
 20
21.439734
 11
55.240150
 21
21.439734
  0
LINE
  8
6
  6
CONTINUOUS
 10
55.240150
 20
21.439734
 11
55.240150
 21
20.699734
  0
LINE
  8
2
  6
CONTINUOUS
 10
70.131905
 20
18.550588
 11
70.131905
 21
23.305430
  0
LINE
  8
2
  6
CONTINUOUS
 10
70.131905
 20
18.550588
 11
70.099273
 21
18.798449
  0
LINE
  8
2
  6
CONTINUOUS
 10
70.131905
 20
18.550588
 11
70.164536
 21
18.798449
  0
LINE
  8
2
  6
CONTINUOUS
 10
70.131905
 20
23.305430
 11
70.164536
 21
23.057569
  0
LINE
  8
2
  6
CONTINUOUS
 10
70.131905
 20
23.305430
 11
70.099273
 21
23.057569
  0
LINE
  8
2
  6
CONTINUOUS
 10
71.763067
 20
18.550588
 11
71.763067
 21
18.550588
  0
LINE
  8
2
  6
CONTINUOUS
 10
71.763067
 20
23.305430
 11
71.763067
 21
23.305430
  0
CIRCLE
  8
2
  6
CONTINUOUS
 10
70.131905
 20
20.726285
 40
0.041625
  0
CIRCLE
  8
2
  6
CONTINUOUS
 10
70.131905
 20
20.726285
 40
0.020750
  0
LINE
  8
6
  6
CONTINUOUS
 10
69.028490
 20
20.626285
 11
69.028490
 21
20.726285
  0
LINE
  8
6
  6
CONTINUOUS
 10
69.028490
 20
20.726285
 11
73.125170
 21
20.726285
  0
LINE
  8
6
  6
CONTINUOUS
 10
73.125170
 20
20.726285
 11
73.125170
 21
20.626285
  0
LINE
  8
2
  6
CONTINUOUS
 10
66.783960
 20
20.695020
 11
66.783960
 21
23.695020
  0
LINE
  8
2
  6
CONTINUOUS
 10
66.783960
 20
20.695020
 11
66.751329
 21
20.942881
  0
LINE
  8
2
  6
CONTINUOUS
 10
66.783960
 20
20.695020
 11
66.816592
 21
20.942881
  0
LINE
  8
2
  6
CONTINUOUS
 10
66.783960
 20
23.695020
 11
66.816592
 21
23.447159
  0
LINE
  8
2
  6
CONTINUOUS
 10
66.783960
 20
23.695020
 11
66.751329
 21
23.447159
  0
LINE
  8
2
  6
CONTINUOUS
 10
66.336952
 20
20.695020
 11
66.336952
 21
20.695020
  0
LINE
  8
2
  6
CONTINUOUS
 10
66.336952
 20
23.695020
 11
66.336952
 21
23.695020
  0
CIRCLE
  8
2
  6
CONTINUOUS
 10
66.783960
 20
21.918456
 40
0.041625
  0
CIRCLE
  8
2
  6
CONTINUOUS
 10
66.783960
 20
21.918456
 40
0.020750
  0
LINE
  8
6
  6
CONTINUOUS
 10
63.630150
 20
21.778456
 11
63.630150
 21
21.918456
  0
LINE
  8
6
  6
CONTINUOUS
 10
63.630150
 20
21.918456
 11
67.690150
 21
21.918456
  0
LINE
  8
6
  6
CONTINUOUS
 10
67.690150
 20
21.918456
 11
67.690150
 21
21.818456
  0
LINE
  8
2
  6
CONTINUOUS
 10
44.200150
 20
23.168952
 11
47.080150
 21
23.168952
  0
LINE
  8
2
  6
CONTINUOUS
 10
46.830150
 20
23.759734
 11
46.830150
 21
22.918952
  0
LINE
  8
2
  6
CONTINUOUS
 10
44.361762
 20
23.080564
 11
44.538538
 21
23.257340
  0
LINE
  8
2
  6
CONTINUOUS
 10
46.741762
 20
23.080564
 11
46.918538
 21
23.257340
  0
LINE
  8
2
  6
CONTINUOUS
 10
44.450150
 20
23.168952
 11
44.450150
 21
23.168952
  0
LINE
  8
2
  6
CONTINUOUS
 10
46.830150
 20
24.009734
 11
46.830150
 21
24.009734
  0
LINE
  8
2
  6
CONTINUOUS
 10
27.405179
 20
18.550588
 11
27.405179
 21
23.305430
  0
LINE
  8
2
  6
CONTINUOUS
 10
27.405179
 20
18.550588
 11
27.372547
 21
18.798449
  0
LINE
  8
2
  6
CONTINUOUS
 10
27.405179
 20
18.550588
 11
27.437810
 21
18.798449
  0
LINE
  8
2
  6
CONTINUOUS
 10
27.405179
 20
23.305430
 11
27.437810
 21
23.057569
  0
LINE
  8
2
  6
CONTINUOUS
 10
27.405179
 20
23.305430
 11
27.372547
 21
23.057569
  0
LINE
  8
2
  6
CONTINUOUS
 10
27.577233
 20
18.550588
 11
27.577233
 21
18.550588
  0
LINE
  8
2
  6
CONTINUOUS
 10
27.577233
 20
23.305430
 11
27.577233
 21
23.305430
  0
CIRCLE
  8
2
  6
CONTINUOUS
 10
27.405179
 20
20.726285
 40
0.041625
  0
CIRCLE
  8
2
  6
CONTINUOUS
 10
27.405179
 20
20.726285
 40
0.020750
  0
LINE
  8
6
  6
CONTINUOUS
 10
26.211810
 20
20.626285
 11
26.211810
 21
20.726285
  0
LINE
  8
6
  6
CONTINUOUS
 10
26.211810
 20
20.726285
 11
30.308490
 21
20.726285
  0
LINE
  8
6
  6
CONTINUOUS
 10
30.308490
 20
20.726285
 11
30.308490
 21
20.626285
  0
LINE
  8
2
  6
CONTINUOUS
 10
33.620150
 20
24.867040
 11
37.580150
 21
24.867040
  0
LINE
  8
2
  6
CONTINUOUS
 10
33.870150
 20
24.993973
 11
33.870150
 21
24.617040
  0
LINE
  8
2
  6
CONTINUOUS
 10
37.330150
 20
25.461687
 11
37.330150
 21
24.617040
  0
LINE
  8
2
  6
CONTINUOUS
 10
33.781762
 20
24.778652
 11
33.958538
 21
24.955428
  0
LINE
  8
2
  6
CONTINUOUS
 10
37.241762
 20
24.778652
 11
37.418538
 21
24.955428
  0
LINE
  8
2
  6
CONTINUOUS
 10
33.870150
 20
25.243973
 11
33.870150
 21
25.243973
  0
LINE
  8
2
  6
CONTINUOUS
 10
37.330150
 20
25.711687
 11
37.330150
 21
25.711687
  0
LINE
  8
6
  6
CONTINUOUS
 10
50.792650
 20
31.924395
 11
50.792650
 21
32.024395
  0
LINE
  8
6
  6
CONTINUOUS
 10
50.792650
 20
32.024395
 11
52.660150
 21
32.024395
  0
LINE
  8
6
  6
CONTINUOUS
 10
52.660150
 20
32.024395
 11
52.660150
 21
31.284395
  0
LINE
  8
2
  6
CONTINUOUS
 10
68.861884
 20
33.550586
 11
68.861884
 21
35.590586
  0
LINE
  8
2
  6
CONTINUOUS
 10
68.861884
 20
33.550586
 11
68.829253
 21
33.798448
  0
LINE
  8
2
  6
CONTINUOUS
 10
68.861884
 20
33.550586
 11
68.894516
 21
33.798448
  0
LINE
  8
2
  6
CONTINUOUS
 10
68.861884
 20
35.590586
 11
68.894516
 21
35.342725
  0
LINE
  8
2
  6
CONTINUOUS
 10
68.861884
 20
35.590586
 11
68.829253
 21
35.342725
  0
LINE
  8
2
  6
CONTINUOUS
 10
70.413590
 20
33.550586
 11
70.413590
 21
33.550586
  0
LINE
  8
2
  6
CONTINUOUS
 10
70.413590
 20
35.590586
 11
70.413590
 21
35.590586
  0
CIRCLE
  8
2
  6
CONTINUOUS
 10
68.861884
 20
34.594586
 40
0.041625
  0
CIRCLE
  8
2
  6
CONTINUOUS
 10
68.861884
 20
34.594586
 40
0.020750
  0
LINE
  8
6
  6
CONTINUOUS
 10
68.280150
 20
34.494586
 11
68.280150
 21
34.594586
  0
LINE
  8
6
  6
CONTINUOUS
 10
68.280150
 20
34.594586
 11
71.480150
 21
34.594586
  0
LINE
  8
6
  6
CONTINUOUS
 10
71.480150
 20
34.594586
 11
71.480150
 21
34.494586
  0
LINE
  8
2
  6
CONTINUOUS
 10
77.554356
 20
39.370586
 11
77.554356
 21
41.017828
  0
LINE
  8
2
  6
CONTINUOUS
 10
77.554356
 20
39.370586
 11
77.521725
 21
39.618448
  0
LINE
  8
2
  6
CONTINUOUS
 10
77.554356
 20
39.370586
 11
77.586988
 21
39.618448
  0
LINE
  8
2
  6
CONTINUOUS
 10
77.554356
 20
41.017828
 11
77.586988
 21
40.769966
  0
LINE
  8
2
  6
CONTINUOUS
 10
77.554356
 20
41.017828
 11
77.521725
 21
40.769966
  0
LINE
  8
2
  6
CONTINUOUS
 10
77.333732
 20
39.370586
 11
77.333732
 21
39.370586
  0
LINE
  8
2
  6
CONTINUOUS
 10
77.333732
 20
41.017828
 11
77.333732
 21
41.017828
  0
CIRCLE
  8
2
  6
CONTINUOUS
 10
77.554356
 20
40.234657
 40
0.041625
  0
CIRCLE
  8
2
  6
CONTINUOUS
 10
77.554356
 20
40.234657
 40
0.020750
  0
LINE
  8
6
  6
CONTINUOUS
 10
74.270150
 20
40.134657
 11
74.270150
 21
40.234657
  0
LINE
  8
6
  6
CONTINUOUS
 10
74.270150
 20
40.234657
 11
78.865292
 21
40.234657
  0
LINE
  8
6
  6
CONTINUOUS
 10
78.865292
 20
40.234657
 11
78.865292
 21
40.134657
  0
LINE
  8
2
  6
CONTINUOUS
 10
75.520703
 20
41.211622
 11
75.520703
 21
44.990586
  0
LINE
  8
2
  6
CONTINUOUS
 10
75.520703
 20
41.211622
 11
75.488072
 21
41.459483
  0
LINE
  8
2
  6
CONTINUOUS
 10
75.520703
 20
41.211622
 11
75.553335
 21
41.459483
  0
LINE
  8
2
  6
CONTINUOUS
 10
75.520703
 20
44.990586
 11
75.553335
 21
44.742725
  0
LINE
  8
2
  6
CONTINUOUS
 10
75.520703
 20
44.990586
 11
75.488072
 21
44.742725
  0
LINE
  8
2
  6
CONTINUOUS
 10
77.116161
 20
41.211622
 11
77.116161
 21
41.211622
  0
LINE
  8
2
  6
CONTINUOUS
 10
77.116161
 20
44.990586
 11
77.116161
 21
44.990586
  0
CIRCLE
  8
2
  6
CONTINUOUS
 10
75.520703
 20
42.947760
 40
0.041625
  0
CIRCLE
  8
2
  6
CONTINUOUS
 10
75.520703
 20
42.947760
 40
0.020750
  0
LINE
  8
6
  6
CONTINUOUS
 10
74.449361
 20
42.847760
 11
74.449361
 21
42.947760
  0
LINE
  8
6
  6
CONTINUOUS
 10
74.449361
 20
42.947760
 11
78.449361
 21
42.947760
  0
LINE
  8
6
  6
CONTINUOUS
 10
78.449361
 20
42.947760
 11
78.449361
 21
42.847760
  0
LINE
  8
2
  6
CONTINUOUS
 10
57.708673
 20
26.735020
 11
57.708673
 21
27.791342
  0
LINE
  8
2
  6
CONTINUOUS
 10
57.708673
 20
26.735020
 11
57.676041
 21
26.982881
  0
LINE
  8
2
  6
CONTINUOUS
 10
57.708673
 20
26.735020
 11
57.741305
 21
26.982881
  0
LINE
  8
2
  6
CONTINUOUS
 10
57.708673
 20
27.791342
 11
57.741305
 21
27.543481
  0
LINE
  8
2
  6
CONTINUOUS
 10
57.708673
 20
27.791342
 11
57.676041
 21
27.543481
  0
LINE
  8
2
  6
CONTINUOUS
 10
56.800070
 20
26.735020
 11
56.800070
 21
26.735020
  0
LINE
  8
2
  6
CONTINUOUS
 10
56.800070
 20
27.791342
 11
56.800070
 21
27.791342
  0
CIRCLE
  8
2
  6
CONTINUOUS
 10
57.708673
 20
27.295597
 40
0.041625
  0
CIRCLE
  8
2
  6
CONTINUOUS
 10
57.708673
 20
27.295597
 40
0.020750
  0
LINE
  8
6
  6
CONTINUOUS
 10
56.000150
 20
27.195597
 11
56.000150
 21
27.295597
  0
LINE
  8
6
  6
CONTINUOUS
 10
56.000150
 20
27.295597
 11
58.400150
 21
27.295597
  0
LINE
  8
6
  6
CONTINUOUS
 10
58.400150
 20
27.295597
 11
58.400150
 21
26.595597
  0
LINE
  8
2
  6
CONTINUOUS
 10
52.260150
 20
23.234891
 11
55.140150
 21
23.234891
  0
LINE
  8
2
  6
CONTINUOUS
 10
52.510150
 20
23.759734
 11
52.510150
 21
22.984891
  0
LINE
  8
2
  6
CONTINUOUS
 10
54.890150
 20
23.386857
 11
54.890150
 21
23.484891
  0
LINE
  8
2
  6
CONTINUOUS
 10
52.421762
 20
23.146502
 11
52.598538
 21
23.323279
  0
LINE
  8
2
  6
CONTINUOUS
 10
54.801762
 20
23.146502
 11
54.978538
 21
23.323279
  0
LINE
  8
2
  6
CONTINUOUS
 10
52.510150
 20
24.009734
 11
52.510150
 21
24.009734
  0
LINE
  8
2
  6
CONTINUOUS
 10
54.890150
 20
23.136857
 11
54.890150
 21
23.136857
  0
LINE
  8
2
  6
CONTINUOUS
 10
56.343806
 20
22.230020
 11
56.343806
 21
26.295020
  0
LINE
  8
2
  6
CONTINUOUS
 10
56.343806
 20
22.230020
 11
56.311174
 21
22.477881
  0
LINE
  8
2
  6
CONTINUOUS
 10
56.343806
 20
22.230020
 11
56.376438
 21
22.477881
  0
LINE
  8
2
  6
CONTINUOUS
 10
56.343806
 20
26.295020
 11
56.376438
 21
26.047159
  0
LINE
  8
2
  6
CONTINUOUS
 10
56.343806
 20
26.295020
 11
56.311174
 21
26.047159
  0
LINE
  8
2
  6
CONTINUOUS
 10
56.190334
 20
22.230020
 11
56.190334
 21
22.230020
  0
LINE
  8
2
  6
CONTINUOUS
 10
56.190334
 20
26.295020
 11
56.190334
 21
26.295020
  0
CIRCLE
  8
2
  6
CONTINUOUS
 10
56.343806
 20
24.149734
 40
0.041625
  0
CIRCLE
  8
2
  6
CONTINUOUS
 10
56.343806
 20
24.149734
 40
0.020750
  0
LINE
  8
6
  6
CONTINUOUS
 10
52.510150
 20
24.009734
 11
52.510150
 21
24.149734
  0
LINE
  8
6
  6
CONTINUOUS
 10
52.510150
 20
24.149734
 11
58.030150
 21
24.149734
  0
LINE
  8
6
  6
CONTINUOUS
 10
58.030150
 20
24.149734
 11
58.030150
 21
24.009734
  0
LINE
  8
2
  6
CONTINUOUS
 10
28.794252
 20
35.970586
 11
28.794252
 21
44.990586
  0
LINE
  8
2
  6
CONTINUOUS
 10
28.794252
 20
35.970586
 11
28.761620
 21
36.218448
  0
LINE
  8
2
  6
CONTINUOUS
 10
28.794252
 20
35.970586
 11
28.826883
 21
36.218448
  0
LINE
  8
2
  6
CONTINUOUS
 10
28.794252
 20
44.990586
 11
28.826883
 21
44.742725
  0
LINE
  8
2
  6
CONTINUOUS
 10
28.794252
 20
44.990586
 11
28.761620
 21
44.742725
  0
LINE
  8
2
  6
CONTINUOUS
 10
28.926710
 20
35.970586
 11
28.926710
 21
35.970586
  0
LINE
  8
2
  6
CONTINUOUS
 10
28.926710
 20
44.990586
 11
28.926710
 21
44.990586
  0
CIRCLE
  8
2
  6
CONTINUOUS
 10
28.794252
 20
40.512586
 40
0.041625
  0
CIRCLE
  8
2
  6
CONTINUOUS
 10
28.794252
 20
40.512586
 40
0.020750
  0
LINE
  8
6
  6
CONTINUOUS
 10
27.860150
 20
40.412586
 11
27.860150
 21
40.512586
  0
LINE
  8
6
  6
CONTINUOUS
 10
27.860150
 20
40.512586
 11
31.060150
 21
40.512586
  0
LINE
  8
6
  6
CONTINUOUS
 10
31.060150
 20
40.512586
 11
31.060150
 21
40.412586
  0
LINE
  8
2
  6
CONTINUOUS
 10
21.791848
 20
39.370586
 11
21.791848
 21
41.017828
  0
LINE
  8
2
  6
CONTINUOUS
 10
21.791848
 20
39.370586
 11
21.759217
 21
39.618448
  0
LINE
  8
2
  6
CONTINUOUS
 10
21.791848
 20
39.370586
 11
21.824480
 21
39.618448
  0
LINE
  8
2
  6
CONTINUOUS
 10
21.791848
 20
41.017828
 11
21.824480
 21
40.769966
  0
LINE
  8
2
  6
CONTINUOUS
 10
21.791848
 20
41.017828
 11
21.759217
 21
40.769966
  0
LINE
  8
2
  6
CONTINUOUS
 10
22.006568
 20
39.370586
 11
22.006568
 21
39.370586
  0
LINE
  8
2
  6
CONTINUOUS
 10
22.006568
 20
41.017828
 11
22.006568
 21
41.017828
  0
CIRCLE
  8
2
  6
CONTINUOUS
 10
21.791848
 20
40.234657
 40
0.041625
  0
CIRCLE
  8
2
  6
CONTINUOUS
 10
21.791848
 20
40.234657
 40
0.020750
  0
LINE
  8
6
  6
CONTINUOUS
 10
20.475008
 20
40.134657
 11
20.475008
 21
40.234657
  0
LINE
  8
6
  6
CONTINUOUS
 10
20.475008
 20
40.234657
 11
25.070150
 21
40.234657
  0
LINE
  8
6
  6
CONTINUOUS
 10
25.070150
 20
40.234657
 11
25.070150
 21
40.134657
  0
LINE
  8
2
  6
CONTINUOUS
 10
22.017340
 20
41.211622
 11
22.017340
 21
44.990586
  0
LINE
  8
2
  6
CONTINUOUS
 10
22.017340
 20
41.211622
 11
21.984708
 21
41.459483
  0
LINE
  8
2
  6
CONTINUOUS
 10
22.017340
 20
41.211622
 11
22.049972
 21
41.459483
  0
LINE
  8
2
  6
CONTINUOUS
 10
22.017340
 20
44.990586
 11
22.049972
 21
44.742725
  0
LINE
  8
2
  6
CONTINUOUS
 10
22.017340
 20
44.990586
 11
21.984708
 21
44.742725
  0
LINE
  8
2
  6
CONTINUOUS
 10
22.224139
 20
41.211622
 11
22.224139
 21
41.211622
  0
LINE
  8
2
  6
CONTINUOUS
 10
22.224139
 20
44.990586
 11
22.224139
 21
44.990586
  0
CIRCLE
  8
2
  6
CONTINUOUS
 10
22.017340
 20
42.947760
 40
0.041625
  0
CIRCLE
  8
2
  6
CONTINUOUS
 10
22.017340
 20
42.947760
 40
0.020750
  0
LINE
  8
6
  6
CONTINUOUS
 10
20.890939
 20
42.847760
 11
20.890939
 21
42.947760
  0
LINE
  8
6
  6
CONTINUOUS
 10
20.890939
 20
42.947760
 11
24.890939
 21
42.947760
  0
LINE
  8
6
  6
CONTINUOUS
 10
24.890939
 20
42.947760
 11
24.890939
 21
42.847760
  0
LINE
  8
2
  6
CONTINUOUS
 10
28.702546
 20
33.550586
 11
28.702546
 21
35.590586
  0
LINE
  8
2
  6
CONTINUOUS
 10
28.702546
 20
33.550586
 11
28.669914
 21
33.798448
  0
LINE
  8
2
  6
CONTINUOUS
 10
28.702546
 20
33.550586
 11
28.735177
 21
33.798448
  0
LINE
  8
2
  6
CONTINUOUS
 10
28.702546
 20
35.590586
 11
28.735177
 21
35.342725
  0
LINE
  8
2
  6
CONTINUOUS
 10
28.702546
 20
35.590586
 11
28.669914
 21
35.342725
  0
LINE
  8
2
  6
CONTINUOUS
 10
28.926710
 20
33.550586
 11
28.926710
 21
33.550586
  0
LINE
  8
2
  6
CONTINUOUS
 10
28.926710
 20
35.590586
 11
28.926710
 21
35.590586
  0
CIRCLE
  8
2
  6
CONTINUOUS
 10
28.702546
 20
34.406942
 40
0.041625
  0
CIRCLE
  8
2
  6
CONTINUOUS
 10
28.702546
 20
34.406942
 40
0.020750
  0
LINE
  8
6
  6
CONTINUOUS
 10
27.860150
 20
34.306942
 11
27.860150
 21
34.406942
  0
LINE
  8
6
  6
CONTINUOUS
 10
27.860150
 20
34.406942
 11
31.060150
 21
34.406942
  0
LINE
  8
6
  6
CONTINUOUS
 10
31.060150
 20
34.406942
 11
31.060150
 21
34.306942
  0
LINE
  8
2
  6
CONTINUOUS
 10
70.646066
 20
35.970586
 11
70.646066
 21
44.990586
  0
LINE
  8
2
  6
CONTINUOUS
 10
70.646066
 20
35.970586
 11
70.613434
 21
36.218448
  0
LINE
  8
2
  6
CONTINUOUS
 10
70.646066
 20
35.970586
 11
70.678697
 21
36.218448
  0
LINE
  8
2
  6
CONTINUOUS
 10
70.646066
 20
44.990586
 11
70.678697
 21
44.742725
  0
LINE
  8
2
  6
CONTINUOUS
 10
70.646066
 20
44.990586
 11
70.613434
 21
44.742725
  0
LINE
  8
2
  6
CONTINUOUS
 10
70.413590
 20
35.970586
 11
70.413590
 21
35.970586
  0
LINE
  8
2
  6
CONTINUOUS
 10
70.413590
 20
44.990586
 11
70.413590
 21
44.990586
  0
CIRCLE
  8
2
  6
CONTINUOUS
 10
70.646066
 20
40.512586
 40
0.041625
  0
CIRCLE
  8
2
  6
CONTINUOUS
 10
70.646066
 20
40.512586
 40
0.020750
  0
LINE
  8
6
  6
CONTINUOUS
 10
68.280150
 20
40.412586
 11
68.280150
 21
40.512586
  0
LINE
  8
6
  6
CONTINUOUS
 10
68.280150
 20
40.512586
 11
71.480150
 21
40.512586
  0
LINE
  8
6
  6
CONTINUOUS
 10
71.480150
 20
40.512586
 11
71.480150
 21
40.412586
  0
LINE
  8
2
  6
CONTINUOUS
 10
33.072375
 20
23.695020
 11
33.072375
 21
26.571531
  0
LINE
  8
2
  6
CONTINUOUS
 10
33.072375
 20
23.695020
 11
33.039744
 21
23.942881
  0
LINE
  8
2
  6
CONTINUOUS
 10
33.072375
 20
23.695020
 11
33.105007
 21
23.942881
  0
LINE
  8
2
  6
CONTINUOUS
 10
33.072375
 20
26.571531
 11
33.105007
 21
26.323670
  0
LINE
  8
2
  6
CONTINUOUS
 10
33.072375
 20
26.571531
 11
33.039744
 21
26.323670
  0
LINE
  8
2
  6
CONTINUOUS
 10
32.996600
 20
23.695020
 11
32.996600
 21
23.695020
  0
LINE
  8
2
  6
CONTINUOUS
 10
32.996600
 20
26.571531
 11
32.996600
 21
26.571531
  0
CIRCLE
  8
2
  6
CONTINUOUS
 10
33.072375
 20
25.851687
 40
0.041625
  0
CIRCLE
  8
2
  6
CONTINUOUS
 10
33.072375
 20
25.851687
 40
0.020750
  0
LINE
  8
6
  6
CONTINUOUS
 10
30.830150
 20
25.691687
 11
30.830150
 21
25.851687
  0
LINE
  8
6
  6
CONTINUOUS
 10
30.830150
 20
25.851687
 11
37.330150
 21
25.851687
  0
LINE
  8
6
  6
CONTINUOUS
 10
37.330150
 20
25.851687
 11
37.330150
 21
25.711687
  0
LINE
  8
2
  6
CONTINUOUS
 10
34.832815
 20
26.909944
 11
34.832815
 21
33.001380
  0
LINE
  8
2
  6
CONTINUOUS
 10
34.832815
 20
26.909944
 11
34.800183
 21
27.157806
  0
LINE
  8
2
  6
CONTINUOUS
 10
34.832815
 20
26.909944
 11
34.865446
 21
27.157806
  0
LINE
  8
2
  6
CONTINUOUS
 10
34.832815
 20
33.001380
 11
34.865446
 21
32.753519
  0
LINE
  8
2
  6
CONTINUOUS
 10
34.832815
 20
33.001380
 11
34.800183
 21
32.753519
  0
LINE
  8
2
  6
CONTINUOUS
 10
32.793280
 20
26.909944
 11
32.793280
 21
26.909944
  0
LINE
  8
2
  6
CONTINUOUS
 10
32.793280
 20
33.001380
 11
32.793280
 21
33.001380
  0
CIRCLE
  8
2
  6
CONTINUOUS
 10
34.832815
 20
30.994901
 40
0.041625
  0
CIRCLE
  8
2
  6
CONTINUOUS
 10
34.832815
 20
30.994901
 40
0.020750
  0
LINE
  8
6
  6
CONTINUOUS
 10
30.760150
 20
30.834901
 11
30.760150
 21
30.994901
  0
LINE
  8
6
  6
CONTINUOUS
 10
30.760150
 20
30.994901
 11
36.860150
 21
30.994901
  0
LINE
  8
6
  6
CONTINUOUS
 10
36.860150
 20
30.994901
 11
36.860150
 21
30.254901
  0
LINE
  8
2
  6
CONTINUOUS
 10
66.553281
 20
23.695020
 11
66.553281
 21
26.571531
  0
LINE
  8
2
  6
CONTINUOUS
 10
66.553281
 20
23.695020
 11
66.520649
 21
23.942881
  0
LINE
  8
2
  6
CONTINUOUS
 10
66.553281
 20
23.695020
 11
66.585912
 21
23.942881
  0
LINE
  8
2
  6
CONTINUOUS
 10
66.553281
 20
26.571531
 11
66.585912
 21
26.323670
  0
LINE
  8
2
  6
CONTINUOUS
 10
66.553281
 20
26.571531
 11
66.520649
 21
26.323670
  0
LINE
  8
2
  6
CONTINUOUS
 10
66.343700
 20
23.695020
 11
66.343700
 21
23.695020
  0
LINE
  8
2
  6
CONTINUOUS
 10
66.343700
 20
26.571531
 11
66.343700
 21
26.571531
  0
CIRCLE
  8
2
  6
CONTINUOUS
 10
66.553281
 20
25.914665
 40
0.041625
  0
CIRCLE
  8
2
  6
CONTINUOUS
 10
66.553281
 20
25.914665
 40
0.020750
  0
LINE
  8
6
  6
CONTINUOUS
 10
62.010150
 20
25.774665
 11
62.010150
 21
25.914665
  0
LINE
  8
6
  6
CONTINUOUS
 10
62.010150
 20
25.914665
 11
68.510150
 21
25.914665
  0
LINE
  8
6
  6
CONTINUOUS
 10
68.510150
 20
25.914665
 11
68.510150
 21
25.754665
  0
LINE
  8
2
  6
CONTINUOUS
 10
66.547020
 20
26.909944
 11
66.547020
 21
33.001380
  0
LINE
  8
2
  6
CONTINUOUS
 10
66.547020
 20
26.909944
 11
66.514389
 21
27.157806
  0
LINE
  8
2
  6
CONTINUOUS
 10
66.547020
 20
26.909944
 11
66.579652
 21
27.157806
  0
LINE
  8
2
  6
CONTINUOUS
 10
66.547020
 20
33.001380
 11
66.579652
 21
32.753519
  0
LINE
  8
2
  6
CONTINUOUS
 10
66.547020
 20
33.001380
 11
66.514389
 21
32.753519
  0
LINE
  8
2
  6
CONTINUOUS
 10
66.547020
 20
26.909944
 11
66.547020
 21
26.909944
  0
LINE
  8
2
  6
CONTINUOUS
 10
66.547020
 20
33.001380
 11
66.547020
 21
33.001380
  0
CIRCLE
  8
2
  6
CONTINUOUS
 10
66.547020
 20
30.994901
 40
0.041625
  0
CIRCLE
  8
2
  6
CONTINUOUS
 10
66.547020
 20
30.994901
 40
0.020750
  0
LINE
  8
6
  6
CONTINUOUS
 10
62.480150
 20
30.254901
 11
62.480150
 21
30.994901
  0
LINE
  8
6
  6
CONTINUOUS
 10
62.480150
 20
30.994901
 11
68.580150
 21
30.994901
  0
LINE
  8
6
  6
CONTINUOUS
 10
68.580150
 20
30.994901
 11
68.580150
 21
30.834901
  0
LINE
  8
2
  6
CONTINUOUS
 10
22.174399
 20
37.716068
 11
24.465965
 21
37.716068
  0
LINE
  8
2
  6
CONTINUOUS
 10
22.424399
 20
37.420587
 11
22.424399
 21
37.966068
  0
LINE
  8
2
  6
CONTINUOUS
 10
24.215965
 20
36.169656
 11
24.215965
 21
37.966068
  0
LINE
  8
2
  6
CONTINUOUS
 10
22.336011
 20
37.627680
 11
22.512787
 21
37.804457
  0
LINE
  8
2
  6
CONTINUOUS
 10
24.127577
 20
37.627680
 11
24.304354
 21
37.804457
  0
LINE
  8
2
  6
CONTINUOUS
 10
22.424399
 20
37.170587
 11
22.424399
 21
37.170587
  0
LINE
  8
2
  6
CONTINUOUS
 10
24.215965
 20
35.919656
 11
24.215965
 21
35.919656
  0
LINE
  8
2
  6
CONTINUOUS
 10
21.285075
 20
35.259594
 11
21.285075
 21
39.214925
  0
LINE
  8
2
  6
CONTINUOUS
 10
21.285075
 20
35.259594
 11
21.252443
 21
35.507455
  0
LINE
  8
2
  6
CONTINUOUS
 10
21.285075
 20
35.259594
 11
21.317706
 21
35.507455
  0
LINE
  8
2
  6
CONTINUOUS
 10
21.285075
 20
39.214925
 11
21.317706
 21
38.967064
  0
LINE
  8
2
  6
CONTINUOUS
 10
21.285075
 20
39.214925
 11
21.252443
 21
38.967064
  0
LINE
  8
2
  6
CONTINUOUS
 10
21.819122
 20
35.259594
 11
21.819122
 21
35.259594
  0
LINE
  8
2
  6
CONTINUOUS
 10
21.819122
 20
39.214925
 11
21.819122
 21
39.214925
  0
CIRCLE
  8
2
  6
CONTINUOUS
 10
21.285075
 20
36.019656
 40
0.041625
  0
CIRCLE
  8
2
  6
CONTINUOUS
 10
21.285075
 20
36.019656
 40
0.020750
  0
LINE
  8
6
  6
CONTINUOUS
 10
20.620880
 20
35.919656
 11
20.620880
 21
36.019656
  0
LINE
  8
6
  6
CONTINUOUS
 10
20.620880
 20
36.019656
 11
24.215965
 21
36.019656
  0
LINE
  8
6
  6
CONTINUOUS
 10
24.215965
 20
36.019656
 11
24.215965
 21
35.919656
  0
LINE
  8
2
  6
CONTINUOUS
 10
77.950059
 20
35.259594
 11
77.950059
 21
39.214925
  0
LINE
  8
2
  6
CONTINUOUS
 10
77.950059
 20
35.259594
 11
77.917427
 21
35.507455
  0
LINE
  8
2
  6
CONTINUOUS
 10
77.950059
 20
35.259594
 11
77.982690
 21
35.507455
  0
LINE
  8
2
  6
CONTINUOUS
 10
77.950059
 20
39.214925
 11
77.982690
 21
38.967064
  0
LINE
  8
2
  6
CONTINUOUS
 10
77.950059
 20
39.214925
 11
77.917427
 21
38.967064
  0
LINE
  8
2
  6
CONTINUOUS
 10
77.633147
 20
35.259594
 11
77.633147
 21
35.259594
  0
LINE
  8
2
  6
CONTINUOUS
 10
77.521178
 20
39.214925
 11
77.521178
 21
39.214925
  0
CIRCLE
  8
2
  6
CONTINUOUS
 10
77.950059
 20
36.019656
 40
0.041625
  0
CIRCLE
  8
2
  6
CONTINUOUS
 10
77.950059
 20
36.019656
 40
0.020750
  0
LINE
  8
6
  6
CONTINUOUS
 10
75.119420
 20
35.919656
 11
75.119420
 21
36.019656
  0
LINE
  8
6
  6
CONTINUOUS
 10
75.119420
 20
36.019656
 11
78.714505
 21
36.019656
  0
LINE
  8
6
  6
CONTINUOUS
 10
78.714505
 20
36.019656
 11
78.714505
 21
35.919656
  0
LINE
  8
2
  6
CONTINUOUS
 10
77.165901
 20
37.789550
 11
74.874335
 21
37.789550
  0
LINE
  8
2
  6
CONTINUOUS
 10
76.915901
 20
37.420587
 11
76.915901
 21
38.039550
  0
LINE
  8
2
  6
CONTINUOUS
 10
75.124335
 20
36.169656
 11
75.124335
 21
38.039550
  0
LINE
  8
2
  6
CONTINUOUS
 10
77.004289
 20
37.877939
 11
76.827513
 21
37.701162
  0
LINE
  8
2
  6
CONTINUOUS
 10
75.212723
 20
37.877939
 11
75.035946
 21
37.701162
  0
LINE
  8
2
  6
CONTINUOUS
 10
76.915901
 20
37.170587
 11
76.915901
 21
37.170587
  0
LINE
  8
2
  6
CONTINUOUS
 10
75.124335
 20
35.919656
 11
75.124335
 21
35.919656
  0
LINE
  8
2
  6
CONTINUOUS
 10
100.737840
 20
51.558391
 11
100.737840
 21
50.245891
  0
LINE
  8
2
  6
CONTINUOUS
 10
111.737840
 20
51.558391
 11
111.737840
 21
50.245891
  0
LINE
  8
2
  6
CONTINUOUS
 10
100.737840
 20
51.558391
 11
111.737840
 21
51.558391
  0
LINE
  8
2
  6
CONTINUOUS
 10
100.737840
 20
50.245891
 11
111.737840
 21
50.245891
  0
LINE
  8
2
  6
CONTINUOUS
 10
103.687840
 20
50.245891
 11
103.687840
 21
51.558391
  0
LINE
  8
2
  6
CONTINUOUS
 10
105.067840
 20
50.245891
 11
105.067840
 21
51.558391
  0
LINE
  8
2
  6
CONTINUOUS
 10
106.877840
 20
50.245891
 11
106.877840
 21
51.558391
  0
LINE
  8
2
  6
CONTINUOUS
 10
108.257840
 20
50.245891
 11
108.257840
 21
51.558391
  0
LINE
  8
2
  6
CONTINUOUS
 10
108.257840
 20
51.120891
 11
111.737840
 21
51.120891
  0
LINE
  8
2
  6
CONTINUOUS
 10
109.867840
 20
50.245891
 11
109.867840
 21
51.120891
  0
LINE
  8
2
  6
CONTINUOUS
 10
111.737840
 20
49.808391
 11
101.887840
 21
49.808391
  0
LINE
  8
2
  6
CONTINUOUS
 10
100.737840
 20
49.808391
 11
100.737840
 21
50.245891
  0
LINE
  8
2
  6
CONTINUOUS
 10
111.737840
 20
49.808391
 11
111.737840
 21
50.245891
  0
LINE
  8
2
  6
CONTINUOUS
 10
100.737840
 20
50.245891
 11
111.737840
 21
50.245891
  0
LINE
  8
2
  6
CONTINUOUS
 10
103.687840
 20
49.808391
 11
103.687840
 21
49.458391
  0
LINE
  8
2
  6
CONTINUOUS
 10
105.067840
 20
49.808391
 11
105.067840
 21
49.458391
  0
LINE
  8
2
  6
CONTINUOUS
 10
106.877840
 20
49.808391
 11
106.877840
 21
49.458391
  0
LINE
  8
2
  6
CONTINUOUS
 10
108.257840
 20
49.808391
 11
108.257840
 21
49.458391
  0
LINE
  8
2
  6
CONTINUOUS
 10
109.867840
 20
49.808391
 11
109.867840
 21
49.458391
  0
LINE
  8
2
  6
CONTINUOUS
 10
100.737840
 20
49.458391
 11
100.737840
 21
49.808391
  0
LINE
  8
2
  6
CONTINUOUS
 10
111.737840
 20
49.458391
 11
111.737840
 21
49.808391
  0
LINE
  8
2
  6
CONTINUOUS
 10
101.887840
 20
49.808391
 11
101.887840
 21
49.458391
  0
LINE
  8
2
  6
CONTINUOUS
 10
103.687840
 20
49.458391
 11
103.687840
 21
49.108391
  0
LINE
  8
2
  6
CONTINUOUS
 10
105.067840
 20
49.458391
 11
105.067840
 21
49.108391
  0
LINE
  8
2
  6
CONTINUOUS
 10
106.877840
 20
49.458391
 11
106.877840
 21
49.108391
  0
LINE
  8
2
  6
CONTINUOUS
 10
108.257840
 20
49.458391
 11
108.257840
 21
49.108391
  0
LINE
  8
2
  6
CONTINUOUS
 10
109.867840
 20
49.458391
 11
109.867840
 21
49.108391
  0
LINE
  8
2
  6
CONTINUOUS
 10
100.737840
 20
49.108391
 11
100.737840
 21
49.458391
  0
LINE
  8
2
  6
CONTINUOUS
 10
111.737840
 20
49.108391
 11
111.737840
 21
49.458391
  0
LINE
  8
2
  6
CONTINUOUS
 10
101.887840
 20
49.458391
 11
101.887840
 21
49.108391
  0
LINE
  8
2
  6
CONTINUOUS
 10
103.687840
 20
49.108391
 11
103.687840
 21
48.758391
  0
LINE
  8
2
  6
CONTINUOUS
 10
105.067840
 20
49.108391
 11
105.067840
 21
48.758391
  0
LINE
  8
2
  6
CONTINUOUS
 10
106.877840
 20
49.108391
 11
106.877840
 21
48.758391
  0
LINE
  8
2
  6
CONTINUOUS
 10
108.257840
 20
49.108391
 11
108.257840
 21
48.758391
  0
LINE
  8
2
  6
CONTINUOUS
 10
109.867840
 20
49.108391
 11
109.867840
 21
48.758391
  0
LINE
  8
2
  6
CONTINUOUS
 10
100.737840
 20
48.758391
 11
100.737840
 21
49.108391
  0
LINE
  8
2
  6
CONTINUOUS
 10
111.737840
 20
48.758391
 11
111.737840
 21
49.108391
  0
LINE
  8
2
  6
CONTINUOUS
 10
101.887840
 20
49.108391
 11
101.887840
 21
48.758391
  0
LINE
  8
2
  6
CONTINUOUS
 10
103.687840
 20
48.758391
 11
103.687840
 21
48.408391
  0
LINE
  8
2
  6
CONTINUOUS
 10
105.067840
 20
48.758391
 11
105.067840
 21
48.408391
  0
LINE
  8
2
  6
CONTINUOUS
 10
106.877840
 20
48.758391
 11
106.877840
 21
48.408391
  0
LINE
  8
2
  6
CONTINUOUS
 10
108.257840
 20
48.758391
 11
108.257840
 21
48.408391
  0
LINE
  8
2
  6
CONTINUOUS
 10
109.867840
 20
48.758391
 11
109.867840
 21
48.408391
  0
LINE
  8
2
  6
CONTINUOUS
 10
100.737840
 20
48.408391
 11
100.737840
 21
48.758391
  0
LINE
  8
2
  6
CONTINUOUS
 10
111.737840
 20
48.408391
 11
111.737840
 21
48.758391
  0
LINE
  8
2
  6
CONTINUOUS
 10
101.887840
 20
48.758391
 11
101.887840
 21
48.408391
  0
LINE
  8
2
  6
CONTINUOUS
 10
103.687840
 20
48.408391
 11
103.687840
 21
48.058391
  0
LINE
  8
2
  6
CONTINUOUS
 10
105.067840
 20
48.408391
 11
105.067840
 21
48.058391
  0
LINE
  8
2
  6
CONTINUOUS
 10
106.877840
 20
48.408391
 11
106.877840
 21
48.058391
  0
LINE
  8
2
  6
CONTINUOUS
 10
108.257840
 20
48.408391
 11
108.257840
 21
48.058391
  0
LINE
  8
2
  6
CONTINUOUS
 10
109.867840
 20
48.408391
 11
109.867840
 21
48.058391
  0
LINE
  8
2
  6
CONTINUOUS
 10
100.737840
 20
48.058391
 11
100.737840
 21
48.408391
  0
LINE
  8
2
  6
CONTINUOUS
 10
111.737840
 20
48.058391
 11
111.737840
 21
48.408391
  0
LINE
  8
2
  6
CONTINUOUS
 10
101.887840
 20
48.408391
 11
101.887840
 21
48.058391
  0
LINE
  8
2
  6
CONTINUOUS
 10
103.687840
 20
48.058391
 11
103.687840
 21
47.708391
  0
LINE
  8
2
  6
CONTINUOUS
 10
105.067840
 20
48.058391
 11
105.067840
 21
47.708391
  0
LINE
  8
2
  6
CONTINUOUS
 10
106.877840
 20
48.058391
 11
106.877840
 21
47.708391
  0
LINE
  8
2
  6
CONTINUOUS
 10
108.257840
 20
48.058391
 11
108.257840
 21
47.708391
  0
LINE
  8
2
  6
CONTINUOUS
 10
109.867840
 20
48.058391
 11
109.867840
 21
47.708391
  0
LINE
  8
2
  6
CONTINUOUS
 10
100.737840
 20
47.708391
 11
100.737840
 21
48.058391
  0
LINE
  8
2
  6
CONTINUOUS
 10
111.737840
 20
47.708391
 11
111.737840
 21
48.058391
  0
LINE
  8
2
  6
CONTINUOUS
 10
101.887840
 20
48.058391
 11
101.887840
 21
47.708391
  0
LINE
  8
2
  6
CONTINUOUS
 10
103.687840
 20
47.708391
 11
103.687840
 21
47.358391
  0
LINE
  8
2
  6
CONTINUOUS
 10
105.067840
 20
47.708391
 11
105.067840
 21
47.358391
  0
LINE
  8
2
  6
CONTINUOUS
 10
106.877840
 20
47.708391
 11
106.877840
 21
47.358391
  0
LINE
  8
2
  6
CONTINUOUS
 10
108.257840
 20
47.708391
 11
108.257840
 21
47.358391
  0
LINE
  8
2
  6
CONTINUOUS
 10
109.867840
 20
47.708391
 11
109.867840
 21
47.358391
  0
LINE
  8
2
  6
CONTINUOUS
 10
100.737840
 20
47.358391
 11
100.737840
 21
47.708391
  0
LINE
  8
2
  6
CONTINUOUS
 10
111.737840
 20
47.358391
 11
111.737840
 21
47.708391
  0
LINE
  8
2
  6
CONTINUOUS
 10
101.887840
 20
47.708391
 11
101.887840
 21
47.358391
  0
LINE
  8
2
  6
CONTINUOUS
 10
103.687840
 20
47.358391
 11
103.687840
 21
47.008391
  0
LINE
  8
2
  6
CONTINUOUS
 10
105.067840
 20
47.358391
 11
105.067840
 21
47.008391
  0
LINE
  8
2
  6
CONTINUOUS
 10
106.877840
 20
47.358391
 11
106.877840
 21
47.008391
  0
LINE
  8
2
  6
CONTINUOUS
 10
108.257840
 20
47.358391
 11
108.257840
 21
47.008391
  0
LINE
  8
2
  6
CONTINUOUS
 10
109.867840
 20
47.358391
 11
109.867840
 21
47.008391
  0
LINE
  8
2
  6
CONTINUOUS
 10
100.737840
 20
47.008391
 11
100.737840
 21
47.358391
  0
LINE
  8
2
  6
CONTINUOUS
 10
111.737840
 20
47.008391
 11
111.737840
 21
47.358391
  0
LINE
  8
2
  6
CONTINUOUS
 10
101.887840
 20
47.358391
 11
101.887840
 21
47.008391
  0
LINE
  8
2
  6
CONTINUOUS
 10
103.687840
 20
47.008391
 11
103.687840
 21
46.658391
  0
LINE
  8
2
  6
CONTINUOUS
 10
105.067840
 20
47.008391
 11
105.067840
 21
46.658391
  0
LINE
  8
2
  6
CONTINUOUS
 10
106.877840
 20
47.008391
 11
106.877840
 21
46.658391
  0
LINE
  8
2
  6
CONTINUOUS
 10
108.257840
 20
47.008391
 11
108.257840
 21
46.658391
  0
LINE
  8
2
  6
CONTINUOUS
 10
109.867840
 20
47.008391
 11
109.867840
 21
46.658391
  0
LINE
  8
2
  6
CONTINUOUS
 10
100.737840
 20
46.658391
 11
100.737840
 21
47.008391
  0
LINE
  8
2
  6
CONTINUOUS
 10
111.737840
 20
46.658391
 11
111.737840
 21
47.008391
  0
LINE
  8
2
  6
CONTINUOUS
 10
101.887840
 20
47.008391
 11
101.887840
 21
46.658391
  0
LINE
  8
2
  6
CONTINUOUS
 10
103.687840
 20
46.658391
 11
103.687840
 21
46.308392
  0
LINE
  8
2
  6
CONTINUOUS
 10
105.067840
 20
46.658391
 11
105.067840
 21
46.308392
  0
LINE
  8
2
  6
CONTINUOUS
 10
106.877840
 20
46.658391
 11
106.877840
 21
46.308392
  0
LINE
  8
2
  6
CONTINUOUS
 10
108.257840
 20
46.658391
 11
108.257840
 21
46.308392
  0
LINE
  8
2
  6
CONTINUOUS
 10
109.867840
 20
46.658391
 11
109.867840
 21
46.308392
  0
LINE
  8
2
  6
CONTINUOUS
 10
100.737840
 20
46.308392
 11
100.737840
 21
46.658391
  0
LINE
  8
2
  6
CONTINUOUS
 10
111.737840
 20
46.308392
 11
111.737840
 21
46.658391
  0
LINE
  8
2
  6
CONTINUOUS
 10
101.887840
 20
46.658391
 11
101.887840
 21
46.308392
  0
LINE
  8
2
  6
CONTINUOUS
 10
103.687840
 20
46.308392
 11
103.687840
 21
45.958392
  0
LINE
  8
2
  6
CONTINUOUS
 10
105.067840
 20
46.308392
 11
105.067840
 21
45.958392
  0
LINE
  8
2
  6
CONTINUOUS
 10
106.877840
 20
46.308392
 11
106.877840
 21
45.958392
  0
LINE
  8
2
  6
CONTINUOUS
 10
108.257840
 20
46.308392
 11
108.257840
 21
45.958392
  0
LINE
  8
2
  6
CONTINUOUS
 10
109.867840
 20
46.308392
 11
109.867840
 21
45.958392
  0
LINE
  8
2
  6
CONTINUOUS
 10
100.737840
 20
45.958392
 11
100.737840
 21
46.308392
  0
LINE
  8
2
  6
CONTINUOUS
 10
111.737840
 20
45.958392
 11
111.737840
 21
46.308392
  0
LINE
  8
2
  6
CONTINUOUS
 10
101.887840
 20
46.308392
 11
101.887840
 21
45.958392
  0
LINE
  8
2
  6
CONTINUOUS
 10
103.687840
 20
45.958392
 11
103.687840
 21
45.608392
  0
LINE
  8
2
  6
CONTINUOUS
 10
105.067840
 20
45.958392
 11
105.067840
 21
45.608392
  0
LINE
  8
2
  6
CONTINUOUS
 10
106.877840
 20
45.958392
 11
106.877840
 21
45.608392
  0
LINE
  8
2
  6
CONTINUOUS
 10
108.257840
 20
45.958392
 11
108.257840
 21
45.608392
  0
LINE
  8
2
  6
CONTINUOUS
 10
109.867840
 20
45.958392
 11
109.867840
 21
45.608392
  0
LINE
  8
2
  6
CONTINUOUS
 10
100.737840
 20
45.608392
 11
100.737840
 21
45.958392
  0
LINE
  8
2
  6
CONTINUOUS
 10
111.737840
 20
45.608392
 11
111.737840
 21
45.958392
  0
LINE
  8
2
  6
CONTINUOUS
 10
101.887840
 20
45.958392
 11
101.887840
 21
45.608392
  0
LINE
  8
2
  6
CONTINUOUS
 10
103.687840
 20
45.608392
 11
103.687840
 21
45.258392
  0
LINE
  8
2
  6
CONTINUOUS
 10
105.067840
 20
45.608392
 11
105.067840
 21
45.258392
  0
LINE
  8
2
  6
CONTINUOUS
 10
106.877840
 20
45.608392
 11
106.877840
 21
45.258392
  0
LINE
  8
2
  6
CONTINUOUS
 10
108.257840
 20
45.608392
 11
108.257840
 21
45.258392
  0
LINE
  8
2
  6
CONTINUOUS
 10
109.867840
 20
45.608392
 11
109.867840
 21
45.258392
  0
LINE
  8
2
  6
CONTINUOUS
 10
100.737840
 20
45.258392
 11
100.737840
 21
45.608392
  0
LINE
  8
2
  6
CONTINUOUS
 10
111.737840
 20
45.258392
 11
111.737840
 21
45.608392
  0
LINE
  8
2
  6
CONTINUOUS
 10
101.887840
 20
45.608392
 11
101.887840
 21
45.258392
  0
LINE
  8
2
  6
CONTINUOUS
 10
103.687840
 20
45.258392
 11
103.687840
 21
44.908392
  0
LINE
  8
2
  6
CONTINUOUS
 10
105.067840
 20
45.258392
 11
105.067840
 21
44.908392
  0
LINE
  8
2
  6
CONTINUOUS
 10
106.877840
 20
45.258392
 11
106.877840
 21
44.908392
  0
LINE
  8
2
  6
CONTINUOUS
 10
108.257840
 20
45.258392
 11
108.257840
 21
44.908392
  0
LINE
  8
2
  6
CONTINUOUS
 10
109.867840
 20
45.258392
 11
109.867840
 21
44.908392
  0
LINE
  8
2
  6
CONTINUOUS
 10
100.737840
 20
44.908392
 11
100.737840
 21
45.258392
  0
LINE
  8
2
  6
CONTINUOUS
 10
111.737840
 20
44.908392
 11
111.737840
 21
45.258392
  0
LINE
  8
2
  6
CONTINUOUS
 10
101.887840
 20
45.258392
 11
101.887840
 21
44.908392
  0
LINE
  8
2
  6
CONTINUOUS
 10
103.687840
 20
44.908392
 11
103.687840
 21
44.558392
  0
LINE
  8
2
  6
CONTINUOUS
 10
105.067840
 20
44.908392
 11
105.067840
 21
44.558392
  0
LINE
  8
2
  6
CONTINUOUS
 10
106.877840
 20
44.908392
 11
106.877840
 21
44.558392
  0
LINE
  8
2
  6
CONTINUOUS
 10
108.257840
 20
44.908392
 11
108.257840
 21
44.558392
  0
LINE
  8
2
  6
CONTINUOUS
 10
109.867840
 20
44.908392
 11
109.867840
 21
44.558392
  0
LINE
  8
2
  6
CONTINUOUS
 10
100.737840
 20
44.558392
 11
100.737840
 21
44.908392
  0
LINE
  8
2
  6
CONTINUOUS
 10
111.737840
 20
44.558392
 11
111.737840
 21
44.908392
  0
LINE
  8
2
  6
CONTINUOUS
 10
101.887840
 20
44.908392
 11
101.887840
 21
44.558392
  0
LINE
  8
2
  6
CONTINUOUS
 10
103.687840
 20
44.558392
 11
103.687840
 21
44.208392
  0
LINE
  8
2
  6
CONTINUOUS
 10
105.067840
 20
44.558392
 11
105.067840
 21
44.208392
  0
LINE
  8
2
  6
CONTINUOUS
 10
106.877840
 20
44.558392
 11
106.877840
 21
44.208392
  0
LINE
  8
2
  6
CONTINUOUS
 10
108.257840
 20
44.558392
 11
108.257840
 21
44.208392
  0
LINE
  8
2
  6
CONTINUOUS
 10
109.867840
 20
44.558392
 11
109.867840
 21
44.208392
  0
LINE
  8
2
  6
CONTINUOUS
 10
100.737840
 20
44.208392
 11
100.737840
 21
44.558392
  0
LINE
  8
2
  6
CONTINUOUS
 10
111.737840
 20
44.208392
 11
111.737840
 21
44.558392
  0
LINE
  8
2
  6
CONTINUOUS
 10
101.887840
 20
44.558392
 11
101.887840
 21
44.208392
  0
LINE
  8
2
  6
CONTINUOUS
 10
103.687840
 20
44.208392
 11
103.687840
 21
43.858392
  0
LINE
  8
2
  6
CONTINUOUS
 10
105.067840
 20
44.208392
 11
105.067840
 21
43.858392
  0
LINE
  8
2
  6
CONTINUOUS
 10
106.877840
 20
44.208392
 11
106.877840
 21
43.858392
  0
LINE
  8
2
  6
CONTINUOUS
 10
108.257840
 20
44.208392
 11
108.257840
 21
43.858392
  0
LINE
  8
2
  6
CONTINUOUS
 10
109.867840
 20
44.208392
 11
109.867840
 21
43.858392
  0
LINE
  8
2
  6
CONTINUOUS
 10
100.737840
 20
43.858392
 11
100.737840
 21
44.208392
  0
LINE
  8
2
  6
CONTINUOUS
 10
111.737840
 20
43.858392
 11
111.737840
 21
44.208392
  0
LINE
  8
2
  6
CONTINUOUS
 10
101.887840
 20
44.208392
 11
101.887840
 21
43.858392
  0
LINE
  8
2
  6
CONTINUOUS
 10
103.687840
 20
43.858392
 11
103.687840
 21
43.508392
  0
LINE
  8
2
  6
CONTINUOUS
 10
105.067840
 20
43.858392
 11
105.067840
 21
43.508392
  0
LINE
  8
2
  6
CONTINUOUS
 10
106.877840
 20
43.858392
 11
106.877840
 21
43.508392
  0
LINE
  8
2
  6
CONTINUOUS
 10
108.257840
 20
43.858392
 11
108.257840
 21
43.508392
  0
LINE
  8
2
  6
CONTINUOUS
 10
109.867840
 20
43.858392
 11
109.867840
 21
43.508392
  0
LINE
  8
2
  6
CONTINUOUS
 10
100.737840
 20
43.508392
 11
100.737840
 21
43.858392
  0
LINE
  8
2
  6
CONTINUOUS
 10
111.737840
 20
43.508392
 11
111.737840
 21
43.858392
  0
LINE
  8
2
  6
CONTINUOUS
 10
101.887840
 20
43.858392
 11
101.887840
 21
43.508392
  0
LINE
  8
2
  6
CONTINUOUS
 10
103.687840
 20
43.508392
 11
103.687840
 21
43.158392
  0
LINE
  8
2
  6
CONTINUOUS
 10
105.067840
 20
43.508392
 11
105.067840
 21
43.158392
  0
LINE
  8
2
  6
CONTINUOUS
 10
106.877840
 20
43.508392
 11
106.877840
 21
43.158392
  0
LINE
  8
2
  6
CONTINUOUS
 10
108.257840
 20
43.508392
 11
108.257840
 21
43.158392
  0
LINE
  8
2
  6
CONTINUOUS
 10
109.867840
 20
43.508392
 11
109.867840
 21
43.158392
  0
LINE
  8
2
  6
CONTINUOUS
 10
100.737840
 20
43.158392
 11
100.737840
 21
43.508392
  0
LINE
  8
2
  6
CONTINUOUS
 10
111.737840
 20
43.158392
 11
111.737840
 21
43.508392
  0
LINE
  8
2
  6
CONTINUOUS
 10
101.887840
 20
43.508392
 11
101.887840
 21
43.158392
  0
LINE
  8
2
  6
CONTINUOUS
 10
103.687840
 20
43.158392
 11
103.687840
 21
42.808392
  0
LINE
  8
2
  6
CONTINUOUS
 10
105.067840
 20
43.158392
 11
105.067840
 21
42.808392
  0
LINE
  8
2
  6
CONTINUOUS
 10
106.877840
 20
43.158392
 11
106.877840
 21
42.808392
  0
LINE
  8
2
  6
CONTINUOUS
 10
108.257840
 20
43.158392
 11
108.257840
 21
42.808392
  0
LINE
  8
2
  6
CONTINUOUS
 10
109.867840
 20
43.158392
 11
109.867840
 21
42.808392
  0
LINE
  8
2
  6
CONTINUOUS
 10
100.737840
 20
42.808392
 11
100.737840
 21
43.158392
  0
LINE
  8
2
  6
CONTINUOUS
 10
111.737840
 20
42.808392
 11
111.737840
 21
43.158392
  0
LINE
  8
2
  6
CONTINUOUS
 10
101.887840
 20
43.158392
 11
101.887840
 21
42.808392
  0
LINE
  8
2
  6
CONTINUOUS
 10
103.687840
 20
42.808392
 11
103.687840
 21
42.458393
  0
LINE
  8
2
  6
CONTINUOUS
 10
105.067840
 20
42.808392
 11
105.067840
 21
42.458393
  0
LINE
  8
2
  6
CONTINUOUS
 10
106.877840
 20
42.808392
 11
106.877840
 21
42.458393
  0
LINE
  8
2
  6
CONTINUOUS
 10
108.257840
 20
42.808392
 11
108.257840
 21
42.458393
  0
LINE
  8
2
  6
CONTINUOUS
 10
109.867840
 20
42.808392
 11
109.867840
 21
42.458393
  0
LINE
  8
2
  6
CONTINUOUS
 10
100.737840
 20
42.458393
 11
100.737840
 21
42.808392
  0
LINE
  8
2
  6
CONTINUOUS
 10
111.737840
 20
42.458393
 11
111.737840
 21
42.808392
  0
LINE
  8
2
  6
CONTINUOUS
 10
101.887840
 20
42.808392
 11
101.887840
 21
42.458393
  0
LINE
  8
2
  6
CONTINUOUS
 10
103.687840
 20
42.458393
 11
103.687840
 21
42.108393
  0
LINE
  8
2
  6
CONTINUOUS
 10
105.067840
 20
42.458393
 11
105.067840
 21
42.108393
  0
LINE
  8
2
  6
CONTINUOUS
 10
106.877840
 20
42.458393
 11
106.877840
 21
42.108393
  0
LINE
  8
2
  6
CONTINUOUS
 10
108.257840
 20
42.458393
 11
108.257840
 21
42.108393
  0
LINE
  8
2
  6
CONTINUOUS
 10
109.867840
 20
42.458393
 11
109.867840
 21
42.108393
  0
LINE
  8
2
  6
CONTINUOUS
 10
100.737840
 20
42.108393
 11
100.737840
 21
42.458393
  0
LINE
  8
2
  6
CONTINUOUS
 10
111.737840
 20
42.108393
 11
111.737840
 21
42.458393
  0
LINE
  8
2
  6
CONTINUOUS
 10
101.887840
 20
42.458393
 11
101.887840
 21
42.108393
  0
LINE
  8
2
  6
CONTINUOUS
 10
100.737840
 20
42.108393
 11
111.737840
 21
42.108393
  0
LINE
  8
2
  6
CONTINUOUS
 10
100.737840
 20
41.108393
 11
100.737840
 21
39.795893
  0
LINE
  8
2
  6
CONTINUOUS
 10
111.737840
 20
41.108393
 11
111.737840
 21
39.795893
  0
LINE
  8
2
  6
CONTINUOUS
 10
100.737840
 20
41.108393
 11
111.737840
 21
41.108393
  0
LINE
  8
2
  6
CONTINUOUS
 10
100.737840
 20
39.795893
 11
111.737840
 21
39.795893
  0
LINE
  8
2
  6
CONTINUOUS
 10
100.737840
 20
40.670893
 11
111.737840
 21
40.670893
  0
LINE
  8
2
  6
CONTINUOUS
 10
105.067840
 20
39.795893
 11
105.067840
 21
40.670893
  0
LINE
  8
2
  6
CONTINUOUS
 10
103.457840
 20
39.795893
 11
103.457840
 21
40.670893
  0
LINE
  8
2
  6
CONTINUOUS
 10
108.402840
 20
39.795893
 11
108.402840
 21
40.670893
  0
LINE
  8
2
  6
CONTINUOUS
 10
108.402840
 20
39.795893
 11
108.402840
 21
39.445892
  0
LINE
  8
2
  6
CONTINUOUS
 10
105.067840
 20
39.445892
 11
105.067840
 21
39.795893
  0
LINE
  8
2
  6
CONTINUOUS
 10
100.737840
 20
39.445892
 11
100.737840
 21
39.795893
  0
LINE
  8
2
  6
CONTINUOUS
 10
111.737840
 20
39.445892
 11
111.737840
 21
39.795893
  0
LINE
  8
2
  6
CONTINUOUS
 10
103.457840
 20
39.795893
 11
103.457840
 21
39.445893
  0
LINE
  8
2
  6
CONTINUOUS
 10
108.402840
 20
39.445892
 11
108.402840
 21
39.095892
  0
LINE
  8
2
  6
CONTINUOUS
 10
105.067840
 20
39.095892
 11
105.067840
 21
39.445892
  0
LINE
  8
2
  6
CONTINUOUS
 10
100.737840
 20
39.095892
 11
100.737840
 21
39.445892
  0
LINE
  8
2
  6
CONTINUOUS
 10
111.737840
 20
39.095892
 11
111.737840
 21
39.445892
  0
LINE
  8
2
  6
CONTINUOUS
 10
103.457840
 20
39.445892
 11
103.457840
 21
39.095892
  0
LINE
  8
2
  6
CONTINUOUS
 10
108.402840
 20
39.095892
 11
108.402840
 21
38.745892
  0
LINE
  8
2
  6
CONTINUOUS
 10
105.067840
 20
38.745892
 11
105.067840
 21
39.095892
  0
LINE
  8
2
  6
CONTINUOUS
 10
100.737840
 20
38.745892
 11
100.737840
 21
39.095892
  0
LINE
  8
2
  6
CONTINUOUS
 10
111.737840
 20
38.745892
 11
111.737840
 21
39.095892
  0
LINE
  8
2
  6
CONTINUOUS
 10
103.457840
 20
39.095892
 11
103.457840
 21
38.745892
  0
LINE
  8
2
  6
CONTINUOUS
 10
108.402840
 20
38.745892
 11
108.402840
 21
38.395891
  0
LINE
  8
2
  6
CONTINUOUS
 10
105.067840
 20
38.395891
 11
105.067840
 21
38.745892
  0
LINE
  8
2
  6
CONTINUOUS
 10
100.737840
 20
38.395891
 11
100.737840
 21
38.745892
  0
LINE
  8
2
  6
CONTINUOUS
 10
111.737840
 20
38.395891
 11
111.737840
 21
38.745892
  0
LINE
  8
2
  6
CONTINUOUS
 10
103.457840
 20
38.745892
 11
103.457840
 21
38.395892
  0
LINE
  8
2
  6
CONTINUOUS
 10
100.737840
 20
38.395891
 11
111.737840
 21
38.395891
  0
LINE
  8
2
  6
CONTINUOUS
 10
100.737840
 20
37.958391
 11
100.737840
 21
38.395891
  0
LINE
  8
2
  6
CONTINUOUS
 10
111.737840
 20
37.958391
 11
111.737840
 21
38.395891
  0
LINE
  8
2
  6
CONTINUOUS
 10
100.737840
 20
38.395891
 11
111.737840
 21
38.395891
  0
LINE
  8
2
  6
CONTINUOUS
 10
111.737840
 20
37.958391
 11
100.737840
 21
37.958391
  0
LINE
  8
2
  6
CONTINUOUS
 10
100.737840
 20
37.958391
 11
111.737840
 21
37.958391
  0
POLYLINE
  8
12
  6
CONTINUOUS
 66
     1
  0
VERTEX
  8
12
  6
CONTINUOUS
 10
-0.000072
 20
59.400002
  0
VERTEX
  8
12
  6
CONTINUOUS
 10
118.899928
 20
59.400002
  0
VERTEX
  8
12
  6
CONTINUOUS
 10
118.899928
 20
0.000000
  0
VERTEX
  8
12
  6
CONTINUOUS
 10
-0.000072
 20
0.000000
  0
VERTEX
  8
12
  6
CONTINUOUS
 10
-0.000072
 20
59.400002
  0
SEQEND
  8
12
  6
CONTINUOUS
  0
POLYLINE
  8
6
  6
CONTINUOUS
 66
     1
  0
VERTEX
  8
6
  6
CONTINUOUS
 10
2.500000
 20
58.400002
  0
VERTEX
  8
6
  6
CONTINUOUS
 10
117.899928
 20
58.400002
  0
VERTEX
  8
6
  6
CONTINUOUS
 10
117.899928
 20
1.000000
  0
VERTEX
  8
6
  6
CONTINUOUS
 10
2.500000
 20
1.000000
  0
VERTEX
  8
6
  6
CONTINUOUS
 10
2.500000
 20
58.400002
  0
SEQEND
  8
6
  6
CONTINUOUS
  0
LINE
  8
12
  6
CONTINUOUS
 10
100.400002
 20
0.000000
 11
100.400002
 21
1.000000
  0
LINE
  8
12
  6
CONTINUOUS
 10
81.900002
 20
0.000000
 11
81.900002
 21
1.000000
  0
LINE
  8
12
  6
CONTINUOUS
 10
63.400002
 20
0.000000
 11
63.400002
 21
1.000000
  0
LINE
  8
12
  6
CONTINUOUS
 10
44.900580
 20
0.000000
 11
44.900580
 21
1.000000
  0
LINE
  8
12
  6
CONTINUOUS
 10
32.950001
 20
0.000000
 11
32.950001
 21
1.000000
  0
LINE
  8
12
  6
CONTINUOUS
 10
20.999421
 20
0.000000
 11
20.999421
 21
1.000000
  0
LINE
  8
12
  6
CONTINUOUS
 10
81.900002
 20
58.400002
 11
81.900002
 21
59.400002
  0
LINE
  8
12
  6
CONTINUOUS
 10
63.400002
 20
58.400002
 11
63.400002
 21
59.400002
  0
LINE
  8
12
  6
CONTINUOUS
 10
44.900580
 20
58.400002
 11
44.900580
 21
59.400002
  0
LINE
  8
12
  6
CONTINUOUS
 10
32.950001
 20
58.400002
 11
32.950001
 21
59.400002
  0
LINE
  8
12
  6
CONTINUOUS
 10
20.999421
 20
58.400002
 11
20.999421
 21
59.400002
  0
LINE
  8
12
  6
CONTINUOUS
 10
100.400002
 20
58.400002
 11
100.400002
 21
59.400002
  0
LINE
  8
12
  6
CONTINUOUS
 10
117.899928
 20
29.700001
 11
118.900002
 21
29.700001
  0
LINE
  8
12
  6
CONTINUOUS
 10
-0.000072
 20
29.700001
 11
2.500000
 21
29.700001
  0
TEXT
  8
2
  6
CONTINUOUS
 10
31.350150
 20
21.745020
 40
0.200000
  1
5
  0
TEXT
  8
2
  6
CONTINUOUS
 10
33.380150
 20
21.595020
 40
0.200000
  1
203
  0
TEXT
  8
2
  6
CONTINUOUS
 10
35.810150
 20
21.725020
 40
0.200000
  1
7
  0
TEXT
  8
2
  6
CONTINUOUS
 10
31.580150
 20
21.995020
 40
0.200000
  1
8
  0
TEXT
  8
2
  6
CONTINUOUS
 10
31.980150
 20
21.995020
 40
0.200000
  1
N14
  0
TEXT
  8
2
  6
CONTINUOUS
 10
32.780150
 20
21.995020
 40
0.200000
  1
%%c 10
  0
TEXT
  8
2
  6
CONTINUOUS
 10
33.780150
 20
21.995020
 40
0.200000
  1
C/20
  0
TEXT
  8
2
  6
CONTINUOUS
 10
34.780150
 20
21.995020
 40
0.200000
  1
C=215
  0
TEXT
  8
2
  6
CONTINUOUS
 10
11.796006
 20
50.636219
 40
0.350000
  1
ESCALA 1:50
  0
TEXT
  8
2
  6
CONTINUOUS
 10
47.590819
 20
18.689020
 40
0.200000
  1
7
  0
TEXT
  8
2
  6
CONTINUOUS
 10
49.400819
 20
18.559020
 40
0.200000
  1
181
  0
TEXT
  8
2
  6
CONTINUOUS
 10
51.610819
 20
18.689020
 40
0.200000
  1
7
  0
TEXT
  8
2
  6
CONTINUOUS
 10
47.500819
 20
18.959020
 40
0.200000
  1
5
  0
TEXT
  8
2
  6
CONTINUOUS
 10
47.900819
 20
18.959020
 40
0.200000
  1
N20
  0
TEXT
  8
2
  6
CONTINUOUS
 10
48.700819
 20
18.959020
 40
0.200000
  1
%%c 6.3
  0
TEXT
  8
2
  6
CONTINUOUS
 10
49.900819
 20
18.959020
 40
0.200000
  1
C/15
  0
TEXT
  8
2
  6
CONTINUOUS
 10
50.900819
 20
18.959020
 40
0.200000
  1
C=195
  0
TEXT
  8
2
  6
CONTINUOUS
 10
29.212938
 20
24.175266
 40
0.200000
  1
92.3
  0
TEXT
  8
2
  6
CONTINUOUS
 10
23.423927
 20
39.247619
 40
0.200000
  1
116.6
  0
TEXT
  8
2
  6
CONTINUOUS
 10
68.556737
 20
25.001172
 40
0.200000
  1
8
  0
TEXT
  8
2
  6
CONTINUOUS
 10
70.943116
 20
24.894560
 40
0.200000
  1
244
  0
TEXT
  8
2
  6
CONTINUOUS
 10
73.835296
 20
25.034808
 40
0.200000
  1
8
  0
TEXT
  8
2
  6
CONTINUOUS
 10
68.943116
 20
25.294560
 40
0.200000
  1
6
  0
TEXT
  8
2
  6
CONTINUOUS
 10
69.343116
 20
25.294560
 40
0.200000
  1
N11
  0
TEXT
  8
2
  6
CONTINUOUS
 10
70.143116
 20
25.294560
 40
0.200000
  1
%%c 12.5
  0
TEXT
  8
2
  6
CONTINUOUS
 10
71.562696
 20
25.294560
 40
0.200000
  1
C/20
  0
TEXT
  8
2
  6
CONTINUOUS
 10
72.562696
 20
25.294560
 40
0.200000
  1
C=260
  0
TEXT
  8
2
  6
CONTINUOUS
 10
25.335726
 20
25.044758
 40
0.200000
  1
8
  0
TEXT
  8
2
  6
CONTINUOUS
 10
27.775726
 20
24.924758
 40
0.200000
  1
244
  0
TEXT
  8
2
  6
CONTINUOUS
 10
30.615726
 20
25.044758
 40
0.200000
  1
8
  0
TEXT
  8
2
  6
CONTINUOUS
 10
25.775726
 20
25.324758
 40
0.200000
  1
6
  0
TEXT
  8
2
  6
CONTINUOUS
 10
26.175726
 20
25.324758
 40
0.200000
  1
N11
  0
TEXT
  8
2
  6
CONTINUOUS
 10
26.975726
 20
25.324758
 40
0.200000
  1
%%c 12.5
  0
TEXT
  8
2
  6
CONTINUOUS
 10
28.375726
 20
25.324758
 40
0.200000
  1
C/20
  0
TEXT
  8
2
  6
CONTINUOUS
 10
29.455225
 20
25.331097
 40
0.200000
  1
C=260
  0
TEXT
  8
2
  6
CONTINUOUS
 10
69.367362
 20
24.175266
 40
0.200000
  1
92.3
  0
TEXT
  8
2
  6
CONTINUOUS
 10
74.956373
 20
39.247619
 40
0.200000
  1
116.6
  0
TEXT
  8
2
  6
CONTINUOUS
 10
63.460150
 20
24.927040
 40
0.200000
  1
173
  0
TEXT
  8
2
  6
CONTINUOUS
 10
20.890939
 20
45.480262
 40
0.200000
  1
5
  0
TEXT
  8
2
  6
CONTINUOUS
 10
22.052285
 20
45.336548
 40
0.200000
  1
95
  0
TEXT
  8
2
  6
CONTINUOUS
 10
23.190939
 20
45.480262
 40
0.200000
  1
35
  0
TEXT
  8
2
  6
CONTINUOUS
 10
19.005804
 20
46.375288
 40
0.200000
  1
7
  0
TEXT
  8
2
  6
CONTINUOUS
 10
19.405804
 20
46.375288
 40
0.200000
  1
N1
  0
TEXT
  8
2
  6
CONTINUOUS
 10
20.005804
 20
46.375288
 40
0.200000
  1
%%c 6.3
  0
TEXT
  8
2
  6
CONTINUOUS
 10
18.733274
 20
45.951354
 40
0.200000
  1
C/12.5
  0
TEXT
  8
2
  6
CONTINUOUS
 10
20.133274
 20
45.951354
 40
0.200000
  1
C=135
  0
TEXT
  8
2
  6
CONTINUOUS
 10
31.728019
 20
43.852339
 40
0.200000
  1
5
  0
TEXT
  8
2
  6
CONTINUOUS
 10
32.671547
 20
43.714200
 40
0.200000
  1
90
  0
TEXT
  8
2
  6
CONTINUOUS
 10
33.920150
 20
43.852339
 40
0.200000
  1
35
  0
TEXT
  8
2
  6
CONTINUOUS
 10
30.358175
 20
44.630726
 40
0.200000
  1
6
  0
TEXT
  8
2
  6
CONTINUOUS
 10
30.758175
 20
44.630726
 40
0.200000
  1
N3
  0
TEXT
  8
2
  6
CONTINUOUS
 10
31.358175
 20
44.630726
 40
0.200000
  1
%%c 6.3
  0
TEXT
  8
2
  6
CONTINUOUS
 10
30.358175
 20
44.257791
 40
0.200000
  1
C/15
  0
TEXT
  8
2
  6
CONTINUOUS
 10
31.358175
 20
44.257791
 40
0.200000
  1
C=130
  0
TEXT
  8
2
  6
CONTINUOUS
 10
22.220150
 20
11.459910
 40
0.200000
  1
35
  0
TEXT
  8
2
  6
CONTINUOUS
 10
23.364338
 20
11.341968
 40
0.200000
  1
90
  0
TEXT
  8
2
  6
CONTINUOUS
 10
24.420150
 20
11.459910
 40
0.200000
  1
5
  0
TEXT
  8
2
  6
CONTINUOUS
 10
24.136597
 20
12.546288
 40
0.200000
  1
8
  0
TEXT
  8
2
  6
CONTINUOUS
 10
24.536597
 20
12.546288
 40
0.200000
  1
N3
  0
TEXT
  8
2
  6
CONTINUOUS
 10
25.136597
 20
12.546288
 40
0.200000
  1
%%c 6.3
  0
TEXT
  8
2
  6
CONTINUOUS
 10
24.156833
 20
12.169919
 40
0.200000
  1
C/10
  0
TEXT
  8
2
  6
CONTINUOUS
 10
25.156833
 20
12.169919
 40
0.200000
  1
C=130
  0
TEXT
  8
2
  6
CONTINUOUS
 10
74.720150
 20
11.459910
 40
0.200000
  1
5
  0
TEXT
  8
2
  6
CONTINUOUS
 10
75.580986
 20
11.324878
 40
0.200000
  1
90
  0
TEXT
  8
2
  6
CONTINUOUS
 10
76.920150
 20
11.159910
 40
0.200000
  1
35
  0
TEXT
  8
2
  6
CONTINUOUS
 10
73.219905
 20
12.575568
 40
0.200000
  1
8
  0
TEXT
  8
2
  6
CONTINUOUS
 10
73.619905
 20
12.575568
 40
0.200000
  1
N3
  0
TEXT
  8
2
  6
CONTINUOUS
 10
74.219905
 20
12.575568
 40
0.200000
  1
%%c 6.3
  0
TEXT
  8
2
  6
CONTINUOUS
 10
73.302862
 20
12.114489
 40
0.200000
  1
C/10
  0
TEXT
  8
2
  6
CONTINUOUS
 10
74.302862
 20
12.114489
 40
0.200000
  1
C=130
  0
TEXT
  8
2
  6
CONTINUOUS
 10
78.280150
 20
19.015771
 40
0.200000
  1
4
  0
TEXT
  8
2
  6
CONTINUOUS
 10
79.400150
 20
18.855771
 40
0.200000
  1
112
  0
TEXT
  8
2
  6
CONTINUOUS
 10
80.920150
 20
18.715771
 40
0.200000
  1
34
  0
TEXT
  8
2
  6
CONTINUOUS
 10
76.932271
 20
19.987420
 40
0.200000
  1
6
  0
TEXT
  8
2
  6
CONTINUOUS
 10
77.332271
 20
19.987420
 40
0.200000
  1
N16
  0
TEXT
  8
2
  6
CONTINUOUS
 10
78.132271
 20
19.987420
 40
0.200000
  1
%%c 6.3
  0
TEXT
  8
2
  6
CONTINUOUS
 10
77.113957
 20
19.580003
 40
0.200000
  1
C/10
  0
TEXT
  8
2
  6
CONTINUOUS
 10
78.113957
 20
19.580003
 40
0.200000
  1
C=150
  0
TEXT
  8
2
  6
CONTINUOUS
 10
18.220150
 20
19.010989
 40
0.200000
  1
34
  0
TEXT
  8
2
  6
CONTINUOUS
 10
19.340150
 20
18.850989
 40
0.200000
  1
112
  0
TEXT
  8
2
  6
CONTINUOUS
 10
20.860150
 20
19.010989
 40
0.200000
  1
4
  0
TEXT
  8
2
  6
CONTINUOUS
 10
20.318338
 20
20.009839
 40
0.200000
  1
6
  0
TEXT
  8
2
  6
CONTINUOUS
 10
20.718338
 20
20.009839
 40
0.200000
  1
N16
  0
TEXT
  8
2
  6
CONTINUOUS
 10
21.518338
 20
20.009839
 40
0.200000
  1
%%c 6.3
  0
TEXT
  8
2
  6
CONTINUOUS
 10
20.389273
 20
19.584228
 40
0.200000
  1
C/10
  0
TEXT
  8
2
  6
CONTINUOUS
 10
21.389273
 20
19.584228
 40
0.200000
  1
C=150
  0
TEXT
  8
2
  6
CONTINUOUS
 10
86.896161
 20
39.894890
 40
0.200000
  1
5
  0
TEXT
  8
2
  6
CONTINUOUS
 10
87.896161
 20
39.744890
 40
0.200000
  1
90
  0
TEXT
  8
2
  6
CONTINUOUS
 10
89.256360
 20
39.652957
 40
0.200000
  1
35
  0
TEXT
  8
2
  6
CONTINUOUS
 10
85.232403
 20
40.872347
 40
0.200000
  1
6
  0
TEXT
  8
2
  6
CONTINUOUS
 10
85.632403
 20
40.872347
 40
0.200000
  1
N3
  0
TEXT
  8
2
  6
CONTINUOUS
 10
86.232403
 20
40.872347
 40
0.200000
  1
%%c 6.3
  0
TEXT
  8
2
  6
CONTINUOUS
 10
85.270271
 20
40.479624
 40
0.200000
  1
C/15
  0
TEXT
  8
2
  6
CONTINUOUS
 10
86.270271
 20
40.479624
 40
0.200000
  1
C=130
  0
TEXT
  8
2
  6
CONTINUOUS
 10
75.724073
 20
45.420274
 40
0.200000
  1
35
  0
TEXT
  8
2
  6
CONTINUOUS
 10
76.999361
 20
45.355321
 40
0.200000
  1
95
  0
TEXT
  8
2
  6
CONTINUOUS
 10
78.249361
 20
45.505321
 40
0.200000
  1
5
  0
TEXT
  8
2
  6
CONTINUOUS
 10
78.427530
 20
46.374006
 40
0.200000
  1
7
  0
TEXT
  8
2
  6
CONTINUOUS
 10
78.827530
 20
46.374006
 40
0.200000
  1
N1
  0
TEXT
  8
2
  6
CONTINUOUS
 10
79.427530
 20
46.374006
 40
0.200000
  1
%%c 6.3
  0
TEXT
  8
2
  6
CONTINUOUS
 10
78.287719
 20
45.963903
 40
0.200000
  1
C/12.5
  0
TEXT
  8
2
  6
CONTINUOUS
 10
79.687719
 20
45.963903
 40
0.200000
  1
C=135
  0
TEXT
  8
2
  6
CONTINUOUS
 10
65.012281
 20
43.551193
 40
0.200000
  1
35
  0
TEXT
  8
2
  6
CONTINUOUS
 10
66.208351
 20
43.701193
 40
0.200000
  1
90
  0
TEXT
  8
2
  6
CONTINUOUS
 10
67.404421
 20
43.851193
 40
0.200000
  1
5
  0
TEXT
  8
2
  6
CONTINUOUS
 10
67.484639
 20
44.637205
 40
0.200000
  1
6
  0
TEXT
  8
2
  6
CONTINUOUS
 10
67.884639
 20
44.637205
 40
0.200000
  1
N3
  0
TEXT
  8
2
  6
CONTINUOUS
 10
68.484639
 20
44.637205
 40
0.200000
  1
%%c 6.3
  0
TEXT
  8
2
  6
CONTINUOUS
 10
67.488101
 20
44.228011
 40
0.200000
  1
C/15
  0
TEXT
  8
2
  6
CONTINUOUS
 10
68.488101
 20
44.228011
 40
0.200000
  1
C=130
  0
TEXT
  8
2
  6
CONTINUOUS
 10
9.843973
 20
39.836667
 40
0.200000
  1
35
  0
TEXT
  8
2
  6
CONTINUOUS
 10
11.044139
 20
39.744890
 40
0.200000
  1
90
  0
TEXT
  8
2
  6
CONTINUOUS
 10
12.244139
 20
39.894890
 40
0.200000
  1
5
  0
TEXT
  8
2
  6
CONTINUOUS
 10
12.220885
 20
40.884682
 40
0.200000
  1
6
  0
TEXT
  8
2
  6
CONTINUOUS
 10
12.620885
 20
40.884682
 40
0.200000
  1
N3
  0
TEXT
  8
2
  6
CONTINUOUS
 10
13.220885
 20
40.884682
 40
0.200000
  1
%%c 6.3
  0
TEXT
  8
2
  6
CONTINUOUS
 10
12.225022
 20
40.475172
 40
0.200000
  1
C/15
  0
TEXT
  8
2
  6
CONTINUOUS
 10
13.225022
 20
40.475172
 40
0.200000
  1
C=130
  0
TEXT
  8
2
  6
CONTINUOUS
 10
52.316676
 20
12.729224
 40
0.200000
  1
7
  0
TEXT
  8
2
  6
CONTINUOUS
 10
55.493983
 20
12.576998
 40
0.200000
  1
245
  0
TEXT
  8
2
  6
CONTINUOUS
 10
57.616676
 20
12.719224
 40
0.200000
  1
8
  0
TEXT
  8
2
  6
CONTINUOUS
 10
55.492600
 20
13.379141
 40
0.200000
  1
54
  0
TEXT
  8
2
  6
CONTINUOUS
 10
56.092600
 20
13.379141
 40
0.200000
  1
N22
  0
TEXT
  8
2
  6
CONTINUOUS
 10
56.892600
 20
13.379141
 40
0.200000
  1
%%c 10
  0
TEXT
  8
2
  6
CONTINUOUS
 10
55.529122
 20
13.020001
 40
0.200000
  1
C/10
  0
TEXT
  8
2
  6
CONTINUOUS
 10
56.529122
 20
13.020001
 40
0.200000
  1
C=260
  0
TEXT
  8
2
  6
CONTINUOUS
 10
41.523624
 20
12.719224
 40
0.200000
  1
8
  0
TEXT
  8
2
  6
CONTINUOUS
 10
44.630686
 20
12.584339
 40
0.200000
  1
245
  0
TEXT
  8
2
  6
CONTINUOUS
 10
46.823624
 20
12.729224
 40
0.200000
  1
7
  0
TEXT
  8
2
  6
CONTINUOUS
 10
44.708831
 20
13.423284
 40
0.200000
  1
54
  0
TEXT
  8
2
  6
CONTINUOUS
 10
45.308831
 20
13.423284
 40
0.200000
  1
N22
  0
TEXT
  8
2
  6
CONTINUOUS
 10
46.108831
 20
13.423284
 40
0.200000
  1
%%c 10
  0
TEXT
  8
2
  6
CONTINUOUS
 10
44.694689
 20
13.020690
 40
0.200000
  1
C/10
  0
TEXT
  8
2
  6
CONTINUOUS
 10
45.694689
 20
13.020690
 40
0.200000
  1
C=260
  0
TEXT
  8
2
  6
CONTINUOUS
 10
30.910150
 20
13.305020
 40
0.200000
  1
5
  0
TEXT
  8
2
  6
CONTINUOUS
 10
34.051234
 20
13.116234
 40
0.200000
  1
247
  0
TEXT
  8
2
  6
CONTINUOUS
 10
36.250150
 20
13.275020
 40
0.200000
  1
8
  0
TEXT
  8
2
  6
CONTINUOUS
 10
34.026569
 20
14.018609
 40
0.200000
  1
47
  0
TEXT
  8
2
  6
CONTINUOUS
 10
34.626569
 20
14.018609
 40
0.200000
  1
N21
  0
TEXT
  8
2
  6
CONTINUOUS
 10
35.426569
 20
14.018609
 40
0.200000
  1
%%c 12.5
  0
TEXT
  8
2
  6
CONTINUOUS
 10
34.034671
 20
13.637817
 40
0.200000
  1
C/12.5
  0
TEXT
  8
2
  6
CONTINUOUS
 10
35.434671
 20
13.637817
 40
0.200000
  1
C=260
  0
TEXT
  8
2
  6
CONTINUOUS
 10
50.475087
 20
29.108407
 40
0.200000
  1
5
  0
TEXT
  8
2
  6
CONTINUOUS
 10
52.818152
 20
28.981870
 40
0.200000
  1
170
  0
TEXT
  8
2
  6
CONTINUOUS
 10
54.291170
 20
29.102169
 40
0.200000
  1
5
  0
TEXT
  8
2
  6
CONTINUOUS
 10
52.917880
 20
29.884893
 40
0.200000
  1
15
  0
TEXT
  8
2
  6
CONTINUOUS
 10
53.517880
 20
29.884893
 40
0.200000
  1
N9
  0
TEXT
  8
2
  6
CONTINUOUS
 10
54.117880
 20
29.884893
 40
0.200000
  1
%%c 8
  0
TEXT
  8
2
  6
CONTINUOUS
 10
52.898274
 20
29.492759
 40
0.200000
  1
C/17.5
  0
TEXT
  8
2
  6
CONTINUOUS
 10
54.298274
 20
29.492759
 40
0.200000
  1
C=180
  0
TEXT
  8
2
  6
CONTINUOUS
 10
33.089154
 20
19.014885
 40
0.200000
  1
35
  0
TEXT
  8
2
  6
CONTINUOUS
 10
34.472120
 20
19.302933
 40
0.200000
  1
108
  0
TEXT
  8
2
  6
CONTINUOUS
 10
35.841401
 20
19.370006
 40
0.200000
  1
7
  0
TEXT
  8
2
  6
CONTINUOUS
 10
34.370845
 20
20.097689
 40
0.200000
  1
3
  0
TEXT
  8
2
  6
CONTINUOUS
 10
34.770845
 20
20.097689
 40
0.200000
  1
N18
  0
TEXT
  8
2
  6
CONTINUOUS
 10
35.570845
 20
20.097689
 40
0.200000
  1
%%c 10
  0
TEXT
  8
2
  6
CONTINUOUS
 10
34.358511
 20
19.761905
 40
0.200000
  1
C/20
  0
TEXT
  8
2
  6
CONTINUOUS
 10
35.358511
 20
19.761905
 40
0.200000
  1
C=150
  0
TEXT
  8
2
  6
CONTINUOUS
 10
52.730150
 20
19.248943
 40
0.200000
  1
7
  0
TEXT
  8
2
  6
CONTINUOUS
 10
55.495942
 20
19.119676
 40
0.200000
  1
205
  0
TEXT
  8
2
  6
CONTINUOUS
 10
57.230150
 20
19.238943
 40
0.200000
  1
8
  0
TEXT
  8
2
  6
CONTINUOUS
 10
55.466480
 20
19.878314
 40
0.200000
  1
13
  0
TEXT
  8
2
  6
CONTINUOUS
 10
56.066480
 20
19.878314
 40
0.200000
  1
N19
  0
TEXT
  8
2
  6
CONTINUOUS
 10
56.866480
 20
19.878314
 40
0.200000
  1
%%c 10
  0
TEXT
  8
2
  6
CONTINUOUS
 10
55.488576
 20
19.554235
 40
0.200000
  1
C/10
  0
TEXT
  8
2
  6
CONTINUOUS
 10
56.488576
 20
19.554235
 40
0.200000
  1
C=220
  0
TEXT
  8
2
  6
CONTINUOUS
 10
41.010150
 20
23.979734
 40
0.200000
  1
7
  0
TEXT
  8
2
  6
CONTINUOUS
 10
44.646512
 20
23.810747
 40
0.200000
  1
276
  0
TEXT
  8
2
  6
CONTINUOUS
 10
46.930150
 20
23.979734
 40
0.200000
  1
7
  0
TEXT
  8
2
  6
CONTINUOUS
 10
44.594156
 20
24.693293
 40
0.200000
  1
11
  0
TEXT
  8
2
  6
CONTINUOUS
 10
45.194156
 20
24.693293
 40
0.200000
  1
N13
  0
TEXT
  8
2
  6
CONTINUOUS
 10
45.994156
 20
24.693293
 40
0.200000
  1
%%c 10
  0
TEXT
  8
2
  6
CONTINUOUS
 10
44.667810
 20
24.302926
 40
0.200000
  1
C/20
  0
TEXT
  8
2
  6
CONTINUOUS
 10
45.667810
 20
24.302926
 40
0.200000
  1
C=290
  0
TEXT
  8
2
  6
CONTINUOUS
 10
41.910150
 20
19.238943
 40
0.200000
  1
8
  0
TEXT
  8
2
  6
CONTINUOUS
 10
44.643592
 20
19.141623
 40
0.200000
  1
205
  0
TEXT
  8
2
  6
CONTINUOUS
 10
46.410150
 20
19.248943
 40
0.200000
  1
7
  0
TEXT
  8
2
  6
CONTINUOUS
 10
44.629186
 20
19.917227
 40
0.200000
  1
13
  0
TEXT
  8
2
  6
CONTINUOUS
 10
45.229186
 20
19.917227
 40
0.200000
  1
N19
  0
TEXT
  8
2
  6
CONTINUOUS
 10
46.029186
 20
19.917227
 40
0.200000
  1
%%c 10
  0
TEXT
  8
2
  6
CONTINUOUS
 10
44.589011
 20
19.555652
 40
0.200000
  1
C/10
  0
TEXT
  8
2
  6
CONTINUOUS
 10
45.589011
 20
19.555652
 40
0.200000
  1
C=220
  0
TEXT
  8
2
  6
CONTINUOUS
 10
63.347997
 20
19.386712
 40
0.200000
  1
7
  0
TEXT
  8
2
  6
CONTINUOUS
 10
64.399984
 20
19.293800
 40
0.200000
  1
108
  0
TEXT
  8
2
  6
CONTINUOUS
 10
65.968636
 20
19.026994
 40
0.200000
  1
35
  0
TEXT
  8
2
  6
CONTINUOUS
 10
62.986782
 20
20.088065
 40
0.200000
  1
3
  0
TEXT
  8
2
  6
CONTINUOUS
 10
63.386782
 20
20.088065
 40
0.200000
  1
N18
  0
TEXT
  8
2
  6
CONTINUOUS
 10
64.186782
 20
20.088065
 40
0.200000
  1
%%c 10
  0
TEXT
  8
2
  6
CONTINUOUS
 10
63.031052
 20
19.783709
 40
0.200000
  1
C/20
  0
TEXT
  8
2
  6
CONTINUOUS
 10
64.031052
 20
19.783709
 40
0.200000
  1
C=150
  0
TEXT
  8
2
  6
CONTINUOUS
 10
62.910140
 20
13.231958
 40
0.200000
  1
8
  0
TEXT
  8
2
  6
CONTINUOUS
 10
66.094779
 20
13.104482
 40
0.200000
  1
247
  0
TEXT
  8
2
  6
CONTINUOUS
 10
68.274693
 20
13.199695
 40
0.200000
  1
5
  0
TEXT
  8
2
  6
CONTINUOUS
 10
66.022077
 20
13.960886
 40
0.200000
  1
47
  0
TEXT
  8
2
  6
CONTINUOUS
 10
66.622077
 20
13.960886
 40
0.200000
  1
N21
  0
TEXT
  8
2
  6
CONTINUOUS
 10
67.422077
 20
13.960886
 40
0.200000
  1
%%c 12.5
  0
TEXT
  8
2
  6
CONTINUOUS
 10
66.022077
 20
13.588358
 40
0.200000
  1
C/12.5
  0
TEXT
  8
2
  6
CONTINUOUS
 10
67.422077
 20
13.588358
 40
0.200000
  1
C=260
  0
TEXT
  8
2
  6
CONTINUOUS
 10
43.645957
 20
21.083746
 40
0.200000
  1
37
  0
TEXT
  8
2
  6
CONTINUOUS
 10
45.210150
 20
21.139734
 40
0.200000
  1
141
  0
TEXT
  8
2
  6
CONTINUOUS
 10
47.043644
 20
21.216704
 40
0.200000
  1
7
  0
TEXT
  8
2
  6
CONTINUOUS
 10
45.076488
 20
21.884795
 40
0.200000
  1
3
  0
TEXT
  8
2
  6
CONTINUOUS
 10
45.476488
 20
21.884795
 40
0.200000
  1
N15
  0
TEXT
  8
2
  6
CONTINUOUS
 10
46.276488
 20
21.884795
 40
0.200000
  1
%%c 10
  0
TEXT
  8
2
  6
CONTINUOUS
 10
45.071915
 20
21.541794
 40
0.200000
  1
C/20
  0
TEXT
  8
2
  6
CONTINUOUS
 10
46.071915
 20
21.541794
 40
0.200000
  1
C=185
  0
TEXT
  8
2
  6
CONTINUOUS
 10
52.181155
 20
21.199871
 40
0.200000
  1
7
  0
TEXT
  8
2
  6
CONTINUOUS
 10
53.507297
 20
21.164316
 40
0.200000
  1
141
  0
TEXT
  8
2
  6
CONTINUOUS
 10
55.419297
 20
21.047309
 40
0.200000
  1
37
  0
TEXT
  8
2
  6
CONTINUOUS
 10
52.255667
 20
21.944958
 40
0.200000
  1
3
  0
TEXT
  8
2
  6
CONTINUOUS
 10
52.655667
 20
21.944958
 40
0.200000
  1
N15
  0
TEXT
  8
2
  6
CONTINUOUS
 10
53.455667
 20
21.944958
 40
0.200000
  1
%%c 10
  0
TEXT
  8
2
  6
CONTINUOUS
 10
52.279973
 20
21.604676
 40
0.200000
  1
C/20
  0
TEXT
  8
2
  6
CONTINUOUS
 10
53.279973
 20
21.604676
 40
0.200000
  1
C=185
  0
TEXT
  8
2
  6
CONTINUOUS
 10
68.741503
 20
20.535871
 40
0.200000
  1
5
  0
TEXT
  8
2
  6
CONTINUOUS
 10
71.456011
 20
20.383452
 40
0.200000
  1
205
  0
TEXT
  8
2
  6
CONTINUOUS
 10
73.260671
 20
20.523454
 40
0.200000
  1
5
  0
TEXT
  8
2
  6
CONTINUOUS
 10
71.482747
 20
21.230107
 40
0.200000
  1
12
  0
TEXT
  8
2
  6
CONTINUOUS
 10
72.082747
 20
21.230107
 40
0.200000
  1
N17
  0
TEXT
  8
2
  6
CONTINUOUS
 10
72.882747
 20
21.230107
 40
0.200000
  1
%%c 10
  0
TEXT
  8
2
  6
CONTINUOUS
 10
71.500571
 20
20.855797
 40
0.200000
  1
C/20
  0
TEXT
  8
2
  6
CONTINUOUS
 10
72.500571
 20
20.855797
 40
0.200000
  1
C=215
  0
TEXT
  8
2
  6
CONTINUOUS
 10
63.294847
 20
21.656486
 40
0.200000
  1
7
  0
TEXT
  8
2
  6
CONTINUOUS
 10
65.468971
 20
21.622593
 40
0.200000
  1
203
  0
TEXT
  8
2
  6
CONTINUOUS
 10
67.790150
 20
21.768456
 40
0.200000
  1
5
  0
TEXT
  8
2
  6
CONTINUOUS
 10
63.781906
 20
22.051768
 40
0.200000
  1
8
  0
TEXT
  8
2
  6
CONTINUOUS
 10
64.181906
 20
22.051768
 40
0.200000
  1
N14
  0
TEXT
  8
2
  6
CONTINUOUS
 10
64.981906
 20
22.051768
 40
0.200000
  1
%%c 10
  0
TEXT
  8
2
  6
CONTINUOUS
 10
65.981906
 20
22.051768
 40
0.200000
  1
C/20
  0
TEXT
  8
2
  6
CONTINUOUS
 10
66.981906
 20
22.051768
 40
0.200000
  1
C=215
  0
TEXT
  8
2
  6
CONTINUOUS
 10
45.360150
 20
23.228952
 40
0.200000
  1
119
  0
TEXT
  8
2
  6
CONTINUOUS
 10
25.911810
 20
20.576285
 40
0.200000
  1
5
  0
TEXT
  8
2
  6
CONTINUOUS
 10
28.086920
 20
20.410370
 40
0.200000
  1
205
  0
TEXT
  8
2
  6
CONTINUOUS
 10
30.408490
 20
20.576285
 40
0.200000
  1
5
  0
TEXT
  8
2
  6
CONTINUOUS
 10
28.718416
 20
21.213252
 40
0.200000
  1
12
  0
TEXT
  8
2
  6
CONTINUOUS
 10
29.318416
 20
21.213252
 40
0.200000
  1
N17
  0
TEXT
  8
2
  6
CONTINUOUS
 10
30.118416
 20
21.213252
 40
0.200000
  1
%%c 10
  0
TEXT
  8
2
  6
CONTINUOUS
 10
28.664497
 20
20.878957
 40
0.200000
  1
C/20
  0
TEXT
  8
2
  6
CONTINUOUS
 10
29.664497
 20
20.878957
 40
0.200000
  1
C=215
  0
TEXT
  8
2
  6
CONTINUOUS
 10
35.320150
 20
24.927040
 40
0.200000
  1
173
  0
TEXT
  8
2
  6
CONTINUOUS
 10
50.546890
 20
31.901459
 40
0.200000
  1
5
  0
TEXT
  8
2
  6
CONTINUOUS
 10
51.569703
 20
31.746192
 40
0.200000
  1
93
  0
TEXT
  8
2
  6
CONTINUOUS
 10
52.824250
 20
31.645796
 40
0.200000
  1
37
  0
TEXT
  8
2
  6
CONTINUOUS
 10
53.216097
 20
32.627109
 40
0.200000
  1
1
  0
TEXT
  8
2
  6
CONTINUOUS
 10
53.616097
 20
32.627109
 40
0.200000
  1
N8
  0
TEXT
  8
2
  6
CONTINUOUS
 10
54.216097
 20
32.627109
 40
0.200000
  1
%%c 8
  0
TEXT
  8
2
  6
CONTINUOUS
 10
55.016097
 20
32.627109
 40
0.200000
  1
C=135
  0
TEXT
  8
2
  6
CONTINUOUS
 10
68.021509
 20
34.376282
 40
0.200000
  1
5
  0
TEXT
  8
2
  6
CONTINUOUS
 10
70.201596
 20
34.279899
 40
0.200000
  1
160
  0
TEXT
  8
2
  6
CONTINUOUS
 10
71.589008
 20
34.397771
 40
0.200000
  1
5
  0
TEXT
  8
2
  6
CONTINUOUS
 10
70.200709
 20
35.021390
 40
0.200000
  1
9
  0
TEXT
  8
2
  6
CONTINUOUS
 10
70.600709
 20
35.021390
 40
0.200000
  1
N5
  0
TEXT
  8
2
  6
CONTINUOUS
 10
71.200709
 20
35.021390
 40
0.200000
  1
%%c 6.3
  0
TEXT
  8
2
  6
CONTINUOUS
 10
70.185617
 20
34.694396
 40
0.200000
  1
C/12.5
  0
TEXT
  8
2
  6
CONTINUOUS
 10
71.585617
 20
34.694396
 40
0.200000
  1
C=170
  0
TEXT
  8
2
  6
CONTINUOUS
 10
73.970150
 20
40.084657
 40
0.200000
  1
5
  0
TEXT
  8
2
  6
CONTINUOUS
 10
75.952318
 20
39.923021
 40
0.200000
  1
VAR
  0
TEXT
  8
2
  6
CONTINUOUS
 10
78.965292
 20
40.084657
 40
0.200000
  1
5
  0
TEXT
  8
2
  6
CONTINUOUS
 10
74.484711
 20
40.749200
 40
0.200000
  1
9
  0
TEXT
  8
2
  6
CONTINUOUS
 10
74.884711
 20
40.749200
 40
0.200000
  1
N4
  0
TEXT
  8
2
  6
CONTINUOUS
 10
75.484711
 20
40.749200
 40
0.200000
  1
%%c 10
  0
TEXT
  8
2
  6
CONTINUOUS
 10
74.471662
 20
40.383848
 40
0.200000
  1
C/10
  0
TEXT
  8
2
  6
CONTINUOUS
 10
75.471662
 20
40.383848
 40
0.200000
  1
C=VAR
  0
TEXT
  8
2
  6
CONTINUOUS
 10
74.149361
 20
42.797760
 40
0.200000
  1
5
  0
TEXT
  8
2
  6
CONTINUOUS
 10
76.845437
 20
42.626316
 40
0.200000
  1
200
  0
TEXT
  8
2
  6
CONTINUOUS
 10
78.601132
 20
42.733262
 40
0.200000
  1
5
  0
TEXT
  8
2
  6
CONTINUOUS
 10
76.898910
 20
43.401674
 40
0.200000
  1
20
  0
TEXT
  8
2
  6
CONTINUOUS
 10
77.498910
 20
43.401674
 40
0.200000
  1
N2
  0
TEXT
  8
2
  6
CONTINUOUS
 10
78.098910
 20
43.401674
 40
0.200000
  1
%%c 10
  0
TEXT
  8
2
  6
CONTINUOUS
 10
76.889998
 20
43.089748
 40
0.200000
  1
C/10
  0
TEXT
  8
2
  6
CONTINUOUS
 10
77.889998
 20
43.089748
 40
0.200000
  1
C=210
  0
TEXT
  8
2
  6
CONTINUOUS
 10
55.707668
 20
27.067032
 40
0.200000
  1
5
  0
TEXT
  8
2
  6
CONTINUOUS
 10
56.900150
 20
26.995597
 40
0.200000
  1
120
  0
TEXT
  8
2
  6
CONTINUOUS
 10
58.500150
 20
26.845597
 40
0.200000
  1
35
  0
TEXT
  8
2
  6
CONTINUOUS
 10
55.389185
 20
27.830035
 40
0.200000
  1
4
  0
TEXT
  8
2
  6
CONTINUOUS
 10
55.789185
 20
27.830035
 40
0.200000
  1
N10
  0
TEXT
  8
2
  6
CONTINUOUS
 10
56.589185
 20
27.830035
 40
0.200000
  1
%%c 6.3
  0
TEXT
  8
2
  6
CONTINUOUS
 10
55.612523
 20
27.469113
 40
0.200000
  1
C/15
  0
TEXT
  8
2
  6
CONTINUOUS
 10
56.612523
 20
27.469113
 40
0.200000
  1
C=160
  0
TEXT
  8
2
  6
CONTINUOUS
 10
53.420150
 20
23.294891
 40
0.200000
  1
119
  0
TEXT
  8
2
  6
CONTINUOUS
 10
52.210150
 20
23.979734
 40
0.200000
  1
7
  0
TEXT
  8
2
  6
CONTINUOUS
 10
54.255719
 20
23.812488
 40
0.200000
  1
276
  0
TEXT
  8
2
  6
CONTINUOUS
 10
58.130150
 20
23.979734
 40
0.200000
  1
7
  0
TEXT
  8
2
  6
CONTINUOUS
 10
52.635281
 20
24.646850
 40
0.200000
  1
11
  0
TEXT
  8
2
  6
CONTINUOUS
 10
53.235281
 20
24.646850
 40
0.200000
  1
N13
  0
TEXT
  8
2
  6
CONTINUOUS
 10
54.035281
 20
24.646850
 40
0.200000
  1
%%c 10
  0
TEXT
  8
2
  6
CONTINUOUS
 10
52.736342
 20
24.256666
 40
0.200000
  1
C/20
  0
TEXT
  8
2
  6
CONTINUOUS
 10
53.736342
 20
24.256666
 40
0.200000
  1
C=290
  0
TEXT
  8
2
  6
CONTINUOUS
 10
27.560150
 20
40.362586
 40
0.200000
  1
5
  0
TEXT
  8
2
  6
CONTINUOUS
 10
29.793147
 20
40.215869
 40
0.200000
  1
160
  0
TEXT
  8
2
  6
CONTINUOUS
 10
31.160150
 20
40.362586
 40
0.200000
  1
5
  0
TEXT
  8
2
  6
CONTINUOUS
 10
29.843008
 20
41.020540
 40
0.200000
  1
31
  0
TEXT
  8
2
  6
CONTINUOUS
 10
30.443008
 20
41.020540
 40
0.200000
  1
N5
  0
TEXT
  8
2
  6
CONTINUOUS
 10
31.043008
 20
41.020540
 40
0.200000
  1
%%c 6.3
  0
TEXT
  8
2
  6
CONTINUOUS
 10
29.810657
 20
40.675462
 40
0.200000
  1
C/15
  0
TEXT
  8
2
  6
CONTINUOUS
 10
30.810657
 20
40.675462
 40
0.200000
  1
C=170
  0
TEXT
  8
2
  6
CONTINUOUS
 10
20.175008
 20
40.084657
 40
0.200000
  1
5
  0
TEXT
  8
2
  6
CONTINUOUS
 10
22.889767
 20
39.941032
 40
0.200000
  1
VAR
  0
TEXT
  8
2
  6
CONTINUOUS
 10
25.170150
 20
40.084657
 40
0.200000
  1
5
  0
TEXT
  8
2
  6
CONTINUOUS
 10
23.159959
 20
40.679931
 40
0.200000
  1
9
  0
TEXT
  8
2
  6
CONTINUOUS
 10
23.559959
 20
40.679931
 40
0.200000
  1
N4
  0
TEXT
  8
2
  6
CONTINUOUS
 10
24.159959
 20
40.679931
 40
0.200000
  1
%%c 10
  0
TEXT
  8
2
  6
CONTINUOUS
 10
23.038430
 20
40.347750
 40
0.200000
  1
C/10
  0
TEXT
  8
2
  6
CONTINUOUS
 10
24.038430
 20
40.347750
 40
0.200000
  1
C=VAR
  0
TEXT
  8
2
  6
CONTINUOUS
 10
20.626739
 20
42.776688
 40
0.200000
  1
5
  0
TEXT
  8
2
  6
CONTINUOUS
 10
23.285901
 20
42.650521
 40
0.200000
  1
200
  0
TEXT
  8
2
  6
CONTINUOUS
 10
25.011231
 20
42.766678
 40
0.200000
  1
5
  0
TEXT
  8
2
  6
CONTINUOUS
 10
23.315362
 20
43.416524
 40
0.200000
  1
20
  0
TEXT
  8
2
  6
CONTINUOUS
 10
23.915362
 20
43.416524
 40
0.200000
  1
N2
  0
TEXT
  8
2
  6
CONTINUOUS
 10
24.515362
 20
43.416524
 40
0.200000
  1
%%c 10
  0
TEXT
  8
2
  6
CONTINUOUS
 10
23.278535
 20
43.077715
 40
0.200000
  1
C/10
  0
TEXT
  8
2
  6
CONTINUOUS
 10
24.278535
 20
43.077715
 40
0.200000
  1
C=210
  0
TEXT
  8
2
  6
CONTINUOUS
 10
27.591100
 20
34.192992
 40
0.200000
  1
5
  0
TEXT
  8
2
  6
CONTINUOUS
 10
29.769762
 20
34.109973
 40
0.200000
  1
160
  0
TEXT
  8
2
  6
CONTINUOUS
 10
31.186764
 20
34.213079
 40
0.200000
  1
5
  0
TEXT
  8
2
  6
CONTINUOUS
 10
29.792406
 20
34.853801
 40
0.200000
  1
9
  0
TEXT
  8
2
  6
CONTINUOUS
 10
30.192406
 20
34.853801
 40
0.200000
  1
N5
  0
TEXT
  8
2
  6
CONTINUOUS
 10
30.792406
 20
34.853801
 40
0.200000
  1
%%c 6.3
  0
TEXT
  8
2
  6
CONTINUOUS
 10
29.787376
 20
34.526807
 40
0.200000
  1
C/12.5
  0
TEXT
  8
2
  6
CONTINUOUS
 10
31.187376
 20
34.526807
 40
0.200000
  1
C=170
  0
TEXT
  8
2
  6
CONTINUOUS
 10
68.018571
 20
40.283378
 40
0.200000
  1
5
  0
TEXT
  8
2
  6
CONTINUOUS
 10
69.002600
 20
40.218188
 40
0.200000
  1
160
  0
TEXT
  8
2
  6
CONTINUOUS
 10
71.580150
 20
40.362586
 40
0.200000
  1
5
  0
TEXT
  8
2
  6
CONTINUOUS
 10
67.429780
 20
40.956005
 40
0.200000
  1
31
  0
TEXT
  8
2
  6
CONTINUOUS
 10
68.029780
 20
40.956005
 40
0.200000
  1
N5
  0
TEXT
  8
2
  6
CONTINUOUS
 10
68.629780
 20
40.956005
 40
0.200000
  1
%%c 6.3
  0
TEXT
  8
2
  6
CONTINUOUS
 10
67.651130
 20
40.623980
 40
0.200000
  1
C/15
  0
TEXT
  8
2
  6
CONTINUOUS
 10
68.651130
 20
40.623980
 40
0.200000
  1
C=170
  0
TEXT
  8
2
  6
CONTINUOUS
 10
30.615852
 20
25.669944
 40
0.200000
  1
8
  0
TEXT
  8
2
  6
CONTINUOUS
 10
34.094167
 20
25.490688
 40
0.200000
  1
325
  0
TEXT
  8
2
  6
CONTINUOUS
 10
37.430150
 20
25.681687
 40
0.200000
  1
7
  0
TEXT
  8
2
  6
CONTINUOUS
 10
32.887284
 20
26.001235
 40
0.200000
 50
90.000000
  1
(144)
  0
TEXT
  8
2
  6
CONTINUOUS
 10
34.056330
 20
26.346059
 40
0.200000
  1
9
  0
TEXT
  8
2
  6
CONTINUOUS
 10
34.456330
 20
26.346059
 40
0.200000
  1
N12
  0
TEXT
  8
2
  6
CONTINUOUS
 10
35.256330
 20
26.346059
 40
0.200000
  1
%%c 8
  0
TEXT
  8
2
  6
CONTINUOUS
 10
34.034234
 20
25.963057
 40
0.200000
  1
C/17.5
  0
TEXT
  8
2
  6
CONTINUOUS
 10
35.434234
 20
25.963057
 40
0.200000
  1
C=340
  0
TEXT
  8
2
  6
CONTINUOUS
 10
30.460150
 20
30.814901
 40
0.200000
  1
8
  0
TEXT
  8
2
  6
CONTINUOUS
 10
32.783254
 20
30.631195
 40
0.200000
  1
305
  0
TEXT
  8
2
  6
CONTINUOUS
 10
36.960150
 20
30.824901
 40
0.200000
  1
37
  0
TEXT
  8
2
  6
CONTINUOUS
 10
34.590313
 20
27.051531
 40
0.200000
 50
90.000000
  1
(305)
  0
TEXT
  8
2
  6
CONTINUOUS
 10
31.026925
 20
31.493688
 40
0.200000
  1
18
  0
TEXT
  8
2
  6
CONTINUOUS
 10
31.626925
 20
31.493688
 40
0.200000
  1
N7
  0
TEXT
  8
2
  6
CONTINUOUS
 10
32.226925
 20
31.493688
 40
0.200000
  1
%%c 8
  0
TEXT
  8
2
  6
CONTINUOUS
 10
30.982733
 20
31.147513
 40
0.200000
  1
C/17.5
  0
TEXT
  8
2
  6
CONTINUOUS
 10
32.382733
 20
31.147513
 40
0.200000
  1
C=350
  0
TEXT
  8
2
  6
CONTINUOUS
 10
61.710150
 20
25.744665
 40
0.200000
  1
7
  0
TEXT
  8
2
  6
CONTINUOUS
 10
64.700692
 20
25.560543
 40
0.200000
  1
325
  0
TEXT
  8
2
  6
CONTINUOUS
 10
68.619625
 20
25.768278
 40
0.200000
  1
8
  0
TEXT
  8
2
  6
CONTINUOUS
 10
66.389841
 20
24.719895
 40
0.200000
 50
90.000000
  1
(144)
  0
TEXT
  8
2
  6
CONTINUOUS
 10
63.235439
 20
26.433374
 40
0.200000
  1
9
  0
TEXT
  8
2
  6
CONTINUOUS
 10
63.635439
 20
26.433374
 40
0.200000
  1
N12
  0
TEXT
  8
2
  6
CONTINUOUS
 10
64.435439
 20
26.433374
 40
0.200000
  1
%%c 8
  0
TEXT
  8
2
  6
CONTINUOUS
 10
62.970475
 20
26.078146
 40
0.200000
  1
C/17.5
  0
TEXT
  8
2
  6
CONTINUOUS
 10
64.370475
 20
26.078146
 40
0.200000
  1
C=340
  0
TEXT
  8
2
  6
CONTINUOUS
 10
61.980150
 20
30.524901
 40
0.200000
  1
37
  0
TEXT
  8
2
  6
CONTINUOUS
 10
64.790532
 20
30.650997
 40
0.200000
  1
305
  0
TEXT
  8
2
  6
CONTINUOUS
 10
68.680150
 20
30.814901
 40
0.200000
  1
8
  0
TEXT
  8
2
  6
CONTINUOUS
 10
66.360588
 20
27.446010
 40
0.200000
 50
90.000000
  1
(305)
  0
TEXT
  8
2
  6
CONTINUOUS
 10
63.056502
 20
31.510316
 40
0.200000
  1
18
  0
TEXT
  8
2
  6
CONTINUOUS
 10
63.656502
 20
31.510316
 40
0.200000
  1
N7
  0
TEXT
  8
2
  6
CONTINUOUS
 10
64.256502
 20
31.510316
 40
0.200000
  1
%%c 8
  0
TEXT
  8
2
  6
CONTINUOUS
 10
63.025474
 20
31.120440
 40
0.200000
  1
C/17.5
  0
TEXT
  8
2
  6
CONTINUOUS
 10
64.425474
 20
31.120440
 40
0.200000
  1
C=350
  0
TEXT
  8
7
  6
CONTINUOUS
 10
11.807048
 20
51.294826
 40
0.800000
  1
TIPO - Armadura negativa horizontal
  0
TEXT
  8
2
  6
CONTINUOUS
 10
22.940182
 20
37.776068
 40
0.200000
  1
89.6
  0
TEXT
  8
2
  6
CONTINUOUS
 10
20.320880
 20
35.869656
 40
0.200000
  1
5
  0
TEXT
  8
2
  6
CONTINUOUS
 10
22.737111
 20
35.669580
 40
0.200000
  1
180
  0
TEXT
  8
2
  6
CONTINUOUS
 10
24.341300
 20
35.815416
 40
0.200000
  1
5
  0
TEXT
  8
2
  6
CONTINUOUS
 10
21.652431
 20
36.525820
 40
0.200000
  1
15
  0
TEXT
  8
2
  6
CONTINUOUS
 10
22.252431
 20
36.525820
 40
0.200000
  1
N6
  0
TEXT
  8
2
  6
CONTINUOUS
 10
22.852431
 20
36.525820
 40
0.200000
  1
%%c 6.3
  0
TEXT
  8
2
  6
CONTINUOUS
 10
21.753236
 20
36.168421
 40
0.200000
  1
C/15
  0
TEXT
  8
2
  6
CONTINUOUS
 10
22.753236
 20
36.168421
 40
0.200000
  1
C=190
  0
TEXT
  8
2
  6
CONTINUOUS
 10
74.843363
 20
35.811043
 40
0.200000
  1
5
  0
TEXT
  8
2
  6
CONTINUOUS
 10
76.293717
 20
35.715380
 40
0.200000
  1
180
  0
TEXT
  8
2
  6
CONTINUOUS
 10
78.814505
 20
35.869656
 40
0.200000
  1
5
  0
TEXT
  8
2
  6
CONTINUOUS
 10
75.498894
 20
36.464675
 40
0.200000
  1
15
  0
TEXT
  8
2
  6
CONTINUOUS
 10
76.098894
 20
36.464675
 40
0.200000
  1
N6
  0
TEXT
  8
2
  6
CONTINUOUS
 10
76.698894
 20
36.464675
 40
0.200000
  1
%%c 6.3
  0
TEXT
  8
2
  6
CONTINUOUS
 10
75.627191
 20
36.125604
 40
0.200000
  1
C/15
  0
TEXT
  8
2
  6
CONTINUOUS
 10
76.627191
 20
36.125604
 40
0.200000
  1
C=190
  0
TEXT
  8
2
  6
CONTINUOUS
 10
75.640118
 20
37.849550
 40
0.200000
  1
89.6
  0
TEXT
  8
2
  6
CONTINUOUS
 10
108.627309
 20
51.214641
 40
0.250000
  1
COMPRIMENTO
  0
TEXT
  8
2
  6
CONTINUOUS
 10
110.197147
 20
50.777141
 40
0.250000
  1
TOTAL
  0
TEXT
  8
2
  6
CONTINUOUS
 10
108.724694
 20
50.777141
 40
0.250000
  1
UNIT
  0
TEXT
  8
2
  6
CONTINUOUS
 10
104.067840
 20
51.214641
 40
0.250000
  1
POS
  0
TEXT
  8
2
  6
CONTINUOUS
 10
105.677840
 20
51.214641
 40
0.250000
  1
BIT
  0
TEXT
  8
2
  6
CONTINUOUS
 10
106.974329
 20
51.214641
 40
0.250000
  1
QUANT
  0
TEXT
  8
2
  6
CONTINUOUS
 10
108.724694
 20
50.339641
 40
0.200000
  1
(cm)
  0
TEXT
  8
2
  6
CONTINUOUS
 10
110.334694
 20
50.339641
 40
0.200000
  1
(cm)
  0
TEXT
  8
2
  6
CONTINUOUS
 10
105.877840
 20
50.777141
 40
0.200000
  1
(mm)
  0
TEXT
  8
2
  6
CONTINUOUS
 10
102.687420
 20
51.214641
 40
0.250000
  1
AÇO
  0
TEXT
  8
2
  6
CONTINUOUS
 10
100.833638
 20
49.902141
 40
0.250000
  1
TIPO - Armadura negativa horizontal   (X16)
  0
TEXT
  8
2
  6
CONTINUOUS
 10
102.027501
 20
49.533390
 40
0.200000
  1
     50A
  0
TEXT
  8
2
  6
CONTINUOUS
 10
104.267840
 20
49.533390
 40
0.200000
  1
  1
  0
TEXT
  8
2
  6
CONTINUOUS
 10
105.274383
 20
49.539434
 40
0.200000
  1
    6.3
  0
TEXT
  8
2
  6
CONTINUOUS
 10
107.257840
 20
49.533390
 40
0.200000
  1
  224
  0
TEXT
  8
2
  6
CONTINUOUS
 10
108.467840
 20
49.533390
 40
0.200000
  1
   135
  0
TEXT
  8
2
  6
CONTINUOUS
 10
110.101462
 20
49.533390
 40
0.200000
  1
  30240
  0
TEXT
  8
2
  6
CONTINUOUS
 10
102.027501
 20
49.183391
 40
0.200000
  1
     50A
  0
TEXT
  8
2
  6
CONTINUOUS
 10
104.267840
 20
49.183391
 40
0.200000
  1
  2
  0
TEXT
  8
2
  6
CONTINUOUS
 10
105.274383
 20
49.189434
 40
0.200000
  1
   10
  0
TEXT
  8
2
  6
CONTINUOUS
 10
107.257840
 20
49.183391
 40
0.200000
  1
  640
  0
TEXT
  8
2
  6
CONTINUOUS
 10
108.467840
 20
49.183391
 40
0.200000
  1
   210
  0
TEXT
  8
2
  6
CONTINUOUS
 10
110.101462
 20
49.183391
 40
0.200000
  1
 134400
  0
TEXT
  8
2
  6
CONTINUOUS
 10
102.027501
 20
48.833391
 40
0.200000
  1
     50A
  0
TEXT
  8
2
  6
CONTINUOUS
 10
104.267840
 20
48.833391
 40
0.200000
  1
  3
  0
TEXT
  8
2
  6
CONTINUOUS
 10
105.274383
 20
48.839435
 40
0.200000
  1
    6.3
  0
TEXT
  8
2
  6
CONTINUOUS
 10
107.257840
 20
48.833391
 40
0.200000
  1
  640
  0
TEXT
  8
2
  6
CONTINUOUS
 10
108.467840
 20
48.833391
 40
0.200000
  1
   130
  0
TEXT
  8
2
  6
CONTINUOUS
 10
110.101462
 20
48.833391
 40
0.200000
  1
  83200
  0
TEXT
  8
2
  6
CONTINUOUS
 10
102.027501
 20
48.483391
 40
0.200000
  1
     50A
  0
TEXT
  8
2
  6
CONTINUOUS
 10
104.267840
 20
48.483391
 40
0.200000
  1
  4
  0
TEXT
  8
2
  6
CONTINUOUS
 10
105.274383
 20
48.489435
 40
0.200000
  1
   10
  0
TEXT
  8
2
  6
CONTINUOUS
 10
107.257840
 20
48.483391
 40
0.200000
  1
  288
  0
TEXT
  8
2
  6
CONTINUOUS
 10
108.467840
 20
48.483391
 40
0.200000
  1
--VAR-
  0
TEXT
  8
2
  6
CONTINUOUS
 10
110.101462
 20
48.483391
 40
0.200000
  1
  69120
  0
TEXT
  8
2
  6
CONTINUOUS
 10
102.027501
 20
48.133391
 40
0.200000
  1
     50A
  0
TEXT
  8
2
  6
CONTINUOUS
 10
104.267840
 20
48.133391
 40
0.200000
  1
  5
  0
TEXT
  8
2
  6
CONTINUOUS
 10
105.274383
 20
48.139435
 40
0.200000
  1
    6.3
  0
TEXT
  8
2
  6
CONTINUOUS
 10
107.257840
 20
48.133391
 40
0.200000
  1
 1280
  0
TEXT
  8
2
  6
CONTINUOUS
 10
108.467840
 20
48.133391
 40
0.200000
  1
   170
  0
TEXT
  8
2
  6
CONTINUOUS
 10
110.101462
 20
48.133391
 40
0.200000
  1
 217600
  0
TEXT
  8
2
  6
CONTINUOUS
 10
102.027501
 20
47.783391
 40
0.200000
  1
     50A
  0
TEXT
  8
2
  6
CONTINUOUS
 10
104.267840
 20
47.783391
 40
0.200000
  1
  6
  0
TEXT
  8
2
  6
CONTINUOUS
 10
105.274383
 20
47.789435
 40
0.200000
  1
    6.3
  0
TEXT
  8
2
  6
CONTINUOUS
 10
107.257840
 20
47.783391
 40
0.200000
  1
  480
  0
TEXT
  8
2
  6
CONTINUOUS
 10
108.467840
 20
47.783391
 40
0.200000
  1
   190
  0
TEXT
  8
2
  6
CONTINUOUS
 10
110.101462
 20
47.783391
 40
0.200000
  1
  91200
  0
TEXT
  8
2
  6
CONTINUOUS
 10
102.027501
 20
47.433391
 40
0.200000
  1
     50A
  0
TEXT
  8
2
  6
CONTINUOUS
 10
104.267840
 20
47.433391
 40
0.200000
  1
  7
  0
TEXT
  8
2
  6
CONTINUOUS
 10
105.274383
 20
47.439435
 40
0.200000
  1
    8
  0
TEXT
  8
2
  6
CONTINUOUS
 10
107.257840
 20
47.433391
 40
0.200000
  1
  576
  0
TEXT
  8
2
  6
CONTINUOUS
 10
108.467840
 20
47.433391
 40
0.200000
  1
   350
  0
TEXT
  8
2
  6
CONTINUOUS
 10
110.101462
 20
47.433391
 40
0.200000
  1
 201600
  0
TEXT
  8
2
  6
CONTINUOUS
 10
102.027501
 20
47.083391
 40
0.200000
  1
     50A
  0
TEXT
  8
2
  6
CONTINUOUS
 10
104.267840
 20
47.083391
 40
0.200000
  1
  8
  0
TEXT
  8
2
  6
CONTINUOUS
 10
105.274383
 20
47.089435
 40
0.200000
  1
    8
  0
TEXT
  8
2
  6
CONTINUOUS
 10
107.257840
 20
47.083391
 40
0.200000
  1
   16
  0
TEXT
  8
2
  6
CONTINUOUS
 10
108.467840
 20
47.083391
 40
0.200000
  1
   135
  0
TEXT
  8
2
  6
CONTINUOUS
 10
110.101462
 20
47.083391
 40
0.200000
  1
   2160
  0
TEXT
  8
2
  6
CONTINUOUS
 10
102.027501
 20
46.733391
 40
0.200000
  1
     50A
  0
TEXT
  8
2
  6
CONTINUOUS
 10
104.267840
 20
46.733391
 40
0.200000
  1
  9
  0
TEXT
  8
2
  6
CONTINUOUS
 10
105.274383
 20
46.739435
 40
0.200000
  1
    8
  0
TEXT
  8
2
  6
CONTINUOUS
 10
107.257840
 20
46.733391
 40
0.200000
  1
  240
  0
TEXT
  8
2
  6
CONTINUOUS
 10
108.467840
 20
46.733391
 40
0.200000
  1
   180
  0
TEXT
  8
2
  6
CONTINUOUS
 10
110.101462
 20
46.733391
 40
0.200000
  1
  43200
  0
TEXT
  8
2
  6
CONTINUOUS
 10
102.027501
 20
46.383391
 40
0.200000
  1
     50A
  0
TEXT
  8
2
  6
CONTINUOUS
 10
104.267840
 20
46.383391
 40
0.200000
  1
 10
  0
TEXT
  8
2
  6
CONTINUOUS
 10
105.274383
 20
46.389435
 40
0.200000
  1
    6.3
  0
TEXT
  8
2
  6
CONTINUOUS
 10
107.257840
 20
46.383391
 40
0.200000
  1
   64
  0
TEXT
  8
2
  6
CONTINUOUS
 10
108.467840
 20
46.383391
 40
0.200000
  1
   160
  0
TEXT
  8
2
  6
CONTINUOUS
 10
110.101462
 20
46.383391
 40
0.200000
  1
  10240
  0
TEXT
  8
2
  6
CONTINUOUS
 10
102.027501
 20
46.033391
 40
0.200000
  1
     50A
  0
TEXT
  8
2
  6
CONTINUOUS
 10
104.267840
 20
46.033391
 40
0.200000
  1
 11
  0
TEXT
  8
2
  6
CONTINUOUS
 10
105.274383
 20
46.039435
 40
0.200000
  1
   12.5
  0
TEXT
  8
2
  6
CONTINUOUS
 10
107.257840
 20
46.033391
 40
0.200000
  1
  192
  0
TEXT
  8
2
  6
CONTINUOUS
 10
108.467840
 20
46.033391
 40
0.200000
  1
   260
  0
TEXT
  8
2
  6
CONTINUOUS
 10
110.101462
 20
46.033391
 40
0.200000
  1
  49920
  0
TEXT
  8
2
  6
CONTINUOUS
 10
102.027501
 20
45.683392
 40
0.200000
  1
     50A
  0
TEXT
  8
2
  6
CONTINUOUS
 10
104.267840
 20
45.683392
 40
0.200000
  1
 12
  0
TEXT
  8
2
  6
CONTINUOUS
 10
105.274383
 20
45.689435
 40
0.200000
  1
    8
  0
TEXT
  8
2
  6
CONTINUOUS
 10
107.257840
 20
45.683392
 40
0.200000
  1
  288
  0
TEXT
  8
2
  6
CONTINUOUS
 10
108.467840
 20
45.683392
 40
0.200000
  1
   340
  0
TEXT
  8
2
  6
CONTINUOUS
 10
110.101462
 20
45.683392
 40
0.200000
  1
  97920
  0
TEXT
  8
2
  6
CONTINUOUS
 10
102.027501
 20
45.333392
 40
0.200000
  1
     50A
  0
TEXT
  8
2
  6
CONTINUOUS
 10
104.267840
 20
45.333392
 40
0.200000
  1
 13
  0
TEXT
  8
2
  6
CONTINUOUS
 10
105.274383
 20
45.339436
 40
0.200000
  1
   10
  0
TEXT
  8
2
  6
CONTINUOUS
 10
107.257840
 20
45.333392
 40
0.200000
  1
  352
  0
TEXT
  8
2
  6
CONTINUOUS
 10
108.467840
 20
45.333392
 40
0.200000
  1
   290
  0
TEXT
  8
2
  6
CONTINUOUS
 10
110.101462
 20
45.333392
 40
0.200000
  1
 102080
  0
TEXT
  8
2
  6
CONTINUOUS
 10
102.027501
 20
44.983392
 40
0.200000
  1
     50A
  0
TEXT
  8
2
  6
CONTINUOUS
 10
104.267840
 20
44.983392
 40
0.200000
  1
 14
  0
TEXT
  8
2
  6
CONTINUOUS
 10
105.274383
 20
44.989436
 40
0.200000
  1
   10
  0
TEXT
  8
2
  6
CONTINUOUS
 10
107.257840
 20
44.983392
 40
0.200000
  1
  256
  0
TEXT
  8
2
  6
CONTINUOUS
 10
108.467840
 20
44.983392
 40
0.200000
  1
   215
  0
TEXT
  8
2
  6
CONTINUOUS
 10
110.101462
 20
44.983392
 40
0.200000
  1
  55040
  0
TEXT
  8
2
  6
CONTINUOUS
 10
102.027501
 20
44.633392
 40
0.200000
  1
     50A
  0
TEXT
  8
2
  6
CONTINUOUS
 10
104.267840
 20
44.633392
 40
0.200000
  1
 15
  0
TEXT
  8
2
  6
CONTINUOUS
 10
105.274383
 20
44.639436
 40
0.200000
  1
   10
  0
TEXT
  8
2
  6
CONTINUOUS
 10
107.257840
 20
44.633392
 40
0.200000
  1
   96
  0
TEXT
  8
2
  6
CONTINUOUS
 10
108.467840
 20
44.633392
 40
0.200000
  1
   185
  0
TEXT
  8
2
  6
CONTINUOUS
 10
110.101462
 20
44.633392
 40
0.200000
  1
  17760
  0
TEXT
  8
2
  6
CONTINUOUS
 10
102.027501
 20
44.283392
 40
0.200000
  1
     50A
  0
TEXT
  8
2
  6
CONTINUOUS
 10
104.267840
 20
44.283392
 40
0.200000
  1
 16
  0
TEXT
  8
2
  6
CONTINUOUS
 10
105.274383
 20
44.289436
 40
0.200000
  1
    6.3
  0
TEXT
  8
2
  6
CONTINUOUS
 10
107.257840
 20
44.283392
 40
0.200000
  1
  192
  0
TEXT
  8
2
  6
CONTINUOUS
 10
108.467840
 20
44.283392
 40
0.200000
  1
   150
  0
TEXT
  8
2
  6
CONTINUOUS
 10
110.101462
 20
44.283392
 40
0.200000
  1
  28800
  0
TEXT
  8
2
  6
CONTINUOUS
 10
102.027501
 20
43.933392
 40
0.200000
  1
     50A
  0
TEXT
  8
2
  6
CONTINUOUS
 10
104.267840
 20
43.933392
 40
0.200000
  1
 17
  0
TEXT
  8
2
  6
CONTINUOUS
 10
105.274383
 20
43.939436
 40
0.200000
  1
   10
  0
TEXT
  8
2
  6
CONTINUOUS
 10
107.257840
 20
43.933392
 40
0.200000
  1
  384
  0
TEXT
  8
2
  6
CONTINUOUS
 10
108.467840
 20
43.933392
 40
0.200000
  1
   215
  0
TEXT
  8
2
  6
CONTINUOUS
 10
110.101462
 20
43.933392
 40
0.200000
  1
  82560
  0
TEXT
  8
2
  6
CONTINUOUS
 10
102.027501
 20
43.583392
 40
0.200000
  1
     50A
  0
TEXT
  8
2
  6
CONTINUOUS
 10
104.267840
 20
43.583392
 40
0.200000
  1
 18
  0
TEXT
  8
2
  6
CONTINUOUS
 10
105.274383
 20
43.589436
 40
0.200000
  1
   10
  0
TEXT
  8
2
  6
CONTINUOUS
 10
107.257840
 20
43.583392
 40
0.200000
  1
   96
  0
TEXT
  8
2
  6
CONTINUOUS
 10
108.467840
 20
43.583392
 40
0.200000
  1
   150
  0
TEXT
  8
2
  6
CONTINUOUS
 10
110.101462
 20
43.583392
 40
0.200000
  1
  14400
  0
TEXT
  8
2
  6
CONTINUOUS
 10
102.027501
 20
43.233392
 40
0.200000
  1
     50A
  0
TEXT
  8
2
  6
CONTINUOUS
 10
104.267840
 20
43.233392
 40
0.200000
  1
 19
  0
TEXT
  8
2
  6
CONTINUOUS
 10
105.274383
 20
43.239436
 40
0.200000
  1
   10
  0
TEXT
  8
2
  6
CONTINUOUS
 10
107.257840
 20
43.233392
 40
0.200000
  1
  416
  0
TEXT
  8
2
  6
CONTINUOUS
 10
108.467840
 20
43.233392
 40
0.200000
  1
   220
  0
TEXT
  8
2
  6
CONTINUOUS
 10
110.101462
 20
43.233392
 40
0.200000
  1
  91520
  0
TEXT
  8
2
  6
CONTINUOUS
 10
102.027501
 20
42.883392
 40
0.200000
  1
     50A
  0
TEXT
  8
2
  6
CONTINUOUS
 10
104.267840
 20
42.883392
 40
0.200000
  1
 20
  0
TEXT
  8
2
  6
CONTINUOUS
 10
105.274383
 20
42.889436
 40
0.200000
  1
    6.3
  0
TEXT
  8
2
  6
CONTINUOUS
 10
107.257840
 20
42.883392
 40
0.200000
  1
   80
  0
TEXT
  8
2
  6
CONTINUOUS
 10
108.467840
 20
42.883392
 40
0.200000
  1
   195
  0
TEXT
  8
2
  6
CONTINUOUS
 10
110.101462
 20
42.883392
 40
0.200000
  1
  15600
  0
TEXT
  8
2
  6
CONTINUOUS
 10
102.027501
 20
42.533392
 40
0.200000
  1
     50A
  0
TEXT
  8
2
  6
CONTINUOUS
 10
104.267840
 20
42.533392
 40
0.200000
  1
 21
  0
TEXT
  8
2
  6
CONTINUOUS
 10
105.274383
 20
42.539436
 40
0.200000
  1
   12.5
  0
TEXT
  8
2
  6
CONTINUOUS
 10
107.257840
 20
42.533392
 40
0.200000
  1
 1504
  0
TEXT
  8
2
  6
CONTINUOUS
 10
108.467840
 20
42.533392
 40
0.200000
  1
   260
  0
TEXT
  8
2
  6
CONTINUOUS
 10
110.101462
 20
42.533392
 40
0.200000
  1
 391040
  0
TEXT
  8
2
  6
CONTINUOUS
 10
102.027501
 20
42.183392
 40
0.200000
  1
     50A
  0
TEXT
  8
2
  6
CONTINUOUS
 10
104.267840
 20
42.183392
 40
0.200000
  1
 22
  0
TEXT
  8
2
  6
CONTINUOUS
 10
105.274383
 20
42.189436
 40
0.200000
  1
   10
  0
TEXT
  8
2
  6
CONTINUOUS
 10
107.257840
 20
42.183392
 40
0.200000
  1
 1728
  0
TEXT
  8
2
  6
CONTINUOUS
 10
108.467840
 20
42.183392
 40
0.200000
  1
   260
  0
TEXT
  8
2
  6
CONTINUOUS
 10
110.101462
 20
42.183392
 40
0.200000
  1
 449280
  0
TEXT
  8
2
  6
CONTINUOUS
 10
106.046681
 20
40.330744
 40
0.250000
  1
COMPR
  0
TEXT
  8
2
  6
CONTINUOUS
 10
109.675680
 20
40.330744
 40
0.250000
  1
PESO
  0
TEXT
  8
2
  6
CONTINUOUS
 10
104.081701
 20
39.899643
 40
0.200000
  1
(mm)
  0
TEXT
  8
2
  6
CONTINUOUS
 10
106.223986
 20
39.899643
 40
0.200000
  1
(m)
  0
TEXT
  8
2
  6
CONTINUOUS
 10
109.744282
 20
39.899643
 40
0.200000
  1
(kg)
  0
TEXT
  8
2
  6
CONTINUOUS
 10
104.067840
 20
40.327143
 40
0.250000
  1
BIT
  0
TEXT
  8
2
  6
CONTINUOUS
 10
103.918337
 20
40.764643
 40
0.250000
  1
RESUMO AÇO CA  50-60
  0
TEXT
  8
2
  6
CONTINUOUS
 10
102.457420
 20
40.327143
 40
0.250000
  1
AÇO
  0
TEXT
  8
2
  6
CONTINUOUS
 10
105.805498
 20
39.520893
 40
0.200000
  1
    4769
  0
TEXT
  8
2
  6
CONTINUOUS
 10
109.653105
 20
39.520893
 40
0.200000
  1
   1168
  0
TEXT
  8
2
  6
CONTINUOUS
 10
103.564382
 20
39.526936
 40
0.200000
  1
    6.3
  0
TEXT
  8
2
  6
CONTINUOUS
 10
101.397501
 20
39.520893
 40
0.200000
  1
     50A
  0
TEXT
  8
2
  6
CONTINUOUS
 10
105.805498
 20
39.170893
 40
0.200000
  1
    3449
  0
TEXT
  8
2
  6
CONTINUOUS
 10
109.653105
 20
39.170893
 40
0.200000
  1
   1362
  0
TEXT
  8
2
  6
CONTINUOUS
 10
103.564382
 20
39.176936
 40
0.200000
  1
    8
  0
TEXT
  8
2
  6
CONTINUOUS
 10
101.397501
 20
39.170892
 40
0.200000
  1
     50A
  0
TEXT
  8
2
  6
CONTINUOUS
 10
105.805498
 20
38.820892
 40
0.200000
  1
   10162
  0
TEXT
  8
2
  6
CONTINUOUS
 10
109.653105
 20
38.820892
 40
0.200000
  1
   6270
  0
TEXT
  8
2
  6
CONTINUOUS
 10
103.564382
 20
38.826936
 40
0.200000
  1
   10
  0
TEXT
  8
2
  6
CONTINUOUS
 10
101.397501
 20
38.820892
 40
0.200000
  1
     50A
  0
TEXT
  8
2
  6
CONTINUOUS
 10
105.805498
 20
38.470892
 40
0.200000
  1
    4410
  0
TEXT
  8
2
  6
CONTINUOUS
 10
109.653105
 20
38.470892
 40
0.200000
  1
   4246
  0
TEXT
  8
2
  6
CONTINUOUS
 10
103.564382
 20
38.476935
 40
0.200000
  1
   12.5
  0
TEXT
  8
2
  6
CONTINUOUS
 10
101.397501
 20
38.470891
 40
0.200000
  1
     50A
  0
TEXT
  8
2
  6
CONTINUOUS
 10
101.030669
 20
38.052141
 40
0.250000
  1
Peso Total        50A =
  0
TEXT
  8
2
  6
CONTINUOUS
 10
108.394844
 20
38.052141
 40
0.250000
  1
  13047 kg
  0
ENDSEC
  0
EOF
