  0
SECTION
  2
HEADER
  9
$ACADVER
  1
AC1002
  9
$USERI1
 70
3599
  9
$INSBASE
 10
0.000000
 20
0.000000
  9
$EXTMIN
 10
-0.000072
 20
0.000000
  9
$EXTMAX
 10
118.900002
 20
59.400002
  9
$LIMMIN
 10
0.000000
 20
0.000000
  9
$LIMMAX
 10
12.000000
 20
9.000000
  9
$VIEWCTR
 10
59.449965
 20
29.700001
  9
$VIEWSIZE
 40
118.900074
  9
$TEXTSIZE
 40
0.100000
  9
$TRACEWID
 40
0.010000
  9
$LTSCALE
 40
1.000000
  0
ENDSEC
  0
SECTION
  2
TABLES
  0
TABLE
  2
LTYPE
 70
     3
  0
LTYPE
  2
CONTINUOUS
 70
    64
  3
Solid line
 72
    65
 73
     0
 40
0.000000
  0
LTYPE
  2
ESTILO_TQS_0001
 70
    64
  3
-  -  -  -  -  -
 72
    65
 73
     2
 40
1.000000
 49
0.700000
 49
-0.300000
  0
LTYPE
  2
ESTILO_TQS_0002
 70
    64
  3
. . . . . . . .
 72
    65
 73
     2
 40
0.400000
 49
0.100000
 49
-0.300000
  0
LTYPE
  2
ESTILO_TQS_0003
 70
    64
  3
- . - . - . - .
 72
    65
 73
     4
 40
1.500000
 49
0.500000
 49
-0.400000
 49
0.100000
 49
-0.500000
  0
LTYPE
  2
ESTILO_TQS_0004
 70
    64
  3
- .. - .. - ..
 72
    65
 73
     6
 40
2.000000
 49
0.500000
 49
-0.400000
 49
0.100000
 49
-0.400000
 49
0.100000
 49
-0.500000
  0
LTYPE
  2
ESTILO_TQS_0005
 70
    64
  3
- - - - - - - -
 72
    65
 73
     2
 40
0.400000
 49
0.300000
 49
-0.100000
  0
ENDTAB
  0
TABLE
  2
LAYER
 70
    89
  0
LAYER
  2
0
 70
     0
 62
     7
  6
CONTINUOUS
  0
LAYER
  2
1
 70
     0
 62
     1
  6
CONTINUOUS
  0
LAYER
  2
2
 70
     0
 62
     2
  6
CONTINUOUS
  0
LAYER
  2
3
 70
     0
 62
   254
  6
CONTINUOUS
  0
LAYER
  2
4
 70
     0
 62
     4
  6
CONTINUOUS
  0
LAYER
  2
5
 70
     0
 62
     5
  6
CONTINUOUS
  0
LAYER
  2
6
 70
     0
 62
     6
  6
CONTINUOUS
  0
LAYER
  2
7
 70
     0
 62
     7
  6
CONTINUOUS
  0
LAYER
  2
8
 70
     0
 62
   241
  6
CONTINUOUS
  0
LAYER
  2
9
 70
     0
 62
   254
  6
CONTINUOUS
  0
LAYER
  2
10
 70
     0
 62
   240
  6
CONTINUOUS
  0
LAYER
  2
11
 70
     0
 62
   241
  6
CONTINUOUS
  0
LAYER
  2
12
 70
     0
 62
   242
  6
CONTINUOUS
  0
LAYER
  2
13
 70
     0
 62
   243
  6
CONTINUOUS
  0
LAYER
  2
14
 70
     0
 62
     8
  6
CONTINUOUS
  0
LAYER
  2
15
 70
     0
 62
   245
  6
CONTINUOUS
  0
LAYER
  2
16
 70
     0
 62
     7
  6
CONTINUOUS
  0
LAYER
  2
17
 70
     0
 62
     2
  6
CONTINUOUS
  0
LAYER
  2
18
 70
     0
 62
   241
  6
CONTINUOUS
  0
LAYER
  2
19
 70
     0
 62
   241
  6
CONTINUOUS
  0
LAYER
  2
20
 70
     0
 62
     7
  6
CONTINUOUS
  0
LAYER
  2
21
 70
     0
 62
     2
  6
CONTINUOUS
  0
LAYER
  2
22
 70
     0
 62
     1
  6
CONTINUOUS
  0
LAYER
  2
23
 70
     0
 62
     7
  6
CONTINUOUS
  0
LAYER
  2
24
 70
     0
 62
     6
  6
CONTINUOUS
  0
LAYER
  2
25
 70
     0
 62
     1
  6
CONTINUOUS
  0
LAYER
  2
26
 70
     0
 62
     3
  6
CONTINUOUS
  0
LAYER
  2
27
 70
     0
 62
     4
  6
CONTINUOUS
  0
LAYER
  2
28
 70
     0
 62
     4
  6
CONTINUOUS
  0
LAYER
  2
29
 70
     0
 62
     2
  6
CONTINUOUS
  0
LAYER
  2
30
 70
     0
 62
     4
  6
CONTINUOUS
  0
LAYER
  2
31
 70
     0
 62
     2
  6
CONTINUOUS
  0
LAYER
  2
32
 70
     0
 62
     2
  6
CONTINUOUS
  0
LAYER
  2
33
 70
     0
 62
     2
  6
CONTINUOUS
  0
LAYER
  2
34
 70
     0
 62
     2
  6
CONTINUOUS
  0
LAYER
  2
35
 70
     0
 62
     2
  6
CONTINUOUS
  0
LAYER
  2
36
 70
     0
 62
     2
  6
CONTINUOUS
  0
LAYER
  2
37
 70
     0
 62
     2
  6
CONTINUOUS
  0
LAYER
  2
38
 70
     0
 62
     2
  6
CONTINUOUS
  0
LAYER
  2
39
 70
     0
 62
     2
  6
CONTINUOUS
  0
LAYER
  2
40
 70
     0
 62
     2
  6
CONTINUOUS
  0
LAYER
  2
41
 70
     0
 62
     2
  6
CONTINUOUS
  0
LAYER
  2
42
 70
     0
 62
     2
  6
CONTINUOUS
  0
LAYER
  2
43
 70
     0
 62
     2
  6
CONTINUOUS
  0
LAYER
  2
44
 70
     0
 62
     2
  6
CONTINUOUS
  0
LAYER
  2
45
 70
     0
 62
     2
  6
CONTINUOUS
  0
LAYER
  2
46
 70
     0
 62
     2
  6
CONTINUOUS
  0
LAYER
  2
47
 70
     0
 62
     2
  6
CONTINUOUS
  0
LAYER
  2
48
 70
     0
 62
     2
  6
CONTINUOUS
  0
LAYER
  2
49
 70
     0
 62
     2
  6
CONTINUOUS
  0
LAYER
  2
50
 70
     0
 62
     2
  6
CONTINUOUS
  0
LAYER
  2
51
 70
     0
 62
     2
  6
CONTINUOUS
  0
LAYER
  2
52
 70
     0
 62
     2
  6
CONTINUOUS
  0
LAYER
  2
53
 70
     0
 62
     2
  6
CONTINUOUS
  0
LAYER
  2
54
 70
     0
 62
     2
  6
CONTINUOUS
  0
LAYER
  2
55
 70
     0
 62
     2
  6
CONTINUOUS
  0
LAYER
  2
56
 70
     0
 62
     2
  6
CONTINUOUS
  0
LAYER
  2
57
 70
     0
 62
     2
  6
CONTINUOUS
  0
LAYER
  2
58
 70
     0
 62
     2
  6
CONTINUOUS
  0
LAYER
  2
59
 70
     0
 62
     2
  6
CONTINUOUS
  0
LAYER
  2
60
 70
     0
 62
     2
  6
CONTINUOUS
  0
LAYER
  2
61
 70
     0
 62
     2
  6
CONTINUOUS
  0
LAYER
  2
62
 70
     0
 62
     2
  6
CONTINUOUS
  0
LAYER
  2
63
 70
     0
 62
     2
  6
CONTINUOUS
  0
LAYER
  2
64
 70
     0
 62
     2
  6
CONTINUOUS
  0
LAYER
  2
65
 70
     0
 62
     2
  6
CONTINUOUS
  0
LAYER
  2
66
 70
     0
 62
     2
  6
CONTINUOUS
  0
LAYER
  2
67
 70
     0
 62
     2
  6
CONTINUOUS
  0
LAYER
  2
68
 70
     0
 62
     2
  6
CONTINUOUS
  0
LAYER
  2
69
 70
     0
 62
     2
  6
CONTINUOUS
  0
LAYER
  2
70
 70
     0
 62
     2
  6
CONTINUOUS
  0
LAYER
  2
71
 70
     0
 62
     2
  6
CONTINUOUS
  0
LAYER
  2
72
 70
     0
 62
     2
  6
CONTINUOUS
  0
LAYER
  2
73
 70
     0
 62
     2
  6
CONTINUOUS
  0
LAYER
  2
74
 70
     0
 62
     2
  6
CONTINUOUS
  0
LAYER
  2
75
 70
     0
 62
     2
  6
CONTINUOUS
  0
LAYER
  2
76
 70
     0
 62
     2
  6
CONTINUOUS
  0
LAYER
  2
77
 70
     0
 62
     2
  6
CONTINUOUS
  0
LAYER
  2
78
 70
     0
 62
     2
  6
CONTINUOUS
  0
LAYER
  2
79
 70
     0
 62
     2
  6
CONTINUOUS
  0
LAYER
  2
80
 70
     0
 62
     2
  6
CONTINUOUS
  0
LAYER
  2
81
 70
     0
 62
     2
  6
CONTINUOUS
  0
LAYER
  2
82
 70
     0
 62
     2
  6
CONTINUOUS
  0
LAYER
  2
83
 70
     0
 62
     2
  6
CONTINUOUS
  0
LAYER
  2
84
 70
     0
 62
     2
  6
CONTINUOUS
  0
LAYER
  2
85
 70
     0
 62
     2
  6
CONTINUOUS
  0
LAYER
  2
86
 70
     0
 62
     2
  6
CONTINUOUS
  0
LAYER
  2
87
 70
     0
 62
     2
  6
CONTINUOUS
  0
LAYER
  2
88
 70
     0
 62
     2
  6
CONTINUOUS
  0
LAYER
  2
89
 70
     0
 62
     2
  6
CONTINUOUS
  0
LAYER
  2
90
 70
     0
 62
     2
  6
CONTINUOUS
  0
LAYER
  2
91
 70
     0
 62
     2
  6
CONTINUOUS
  0
LAYER
  2
92
 70
     0
 62
     2
  6
CONTINUOUS
  0
LAYER
  2
93
 70
     0
 62
     2
  6
CONTINUOUS
  0
LAYER
  2
94
 70
     0
 62
     2
  6
CONTINUOUS
  0
LAYER
  2
95
 70
     0
 62
     2
  6
CONTINUOUS
  0
LAYER
  2
96
 70
     0
 62
     2
  6
CONTINUOUS
  0
LAYER
  2
97
 70
     0
 62
     2
  6
CONTINUOUS
  0
LAYER
  2
98
 70
     0
 62
     2
  6
CONTINUOUS
  0
LAYER
  2
99
 70
     0
 62
     2
  6
CONTINUOUS
  0
LAYER
  2
100
 70
     0
 62
     1
  6
CONTINUOUS
  0
LAYER
  2
101
 70
     0
 62
   254
  6
CONTINUOUS
  0
LAYER
  2
102
 70
     0
 62
     7
  6
CONTINUOUS
  0
LAYER
  2
103
 70
     0
 62
     2
  6
CONTINUOUS
  0
LAYER
  2
104
 70
     0
 62
   241
  6
CONTINUOUS
  0
LAYER
  2
105
 70
     0
 62
     3
  6
CONTINUOUS
  0
LAYER
  2
106
 70
     0
 62
     5
  6
CONTINUOUS
  0
LAYER
  2
107
 70
     0
 62
     3
  6
CONTINUOUS
  0
LAYER
  2
108
 70
     0
 62
     5
  6
CONTINUOUS
  0
LAYER
  2
109
 70
     0
 62
     3
  6
CONTINUOUS
  0
LAYER
  2
110
 70
     0
 62
     2
  6
CONTINUOUS
  0
LAYER
  2
111
 70
     0
 62
     1
  6
CONTINUOUS
  0
LAYER
  2
112
 70
     0
 62
     2
  6
CONTINUOUS
  0
LAYER
  2
113
 70
     0
 62
     2
  6
CONTINUOUS
  0
LAYER
  2
114
 70
     0
 62
     2
  6
CONTINUOUS
  0
LAYER
  2
115
 70
     0
 62
     2
  6
CONTINUOUS
  0
LAYER
  2
116
 70
     0
 62
     2
  6
CONTINUOUS
  0
LAYER
  2
117
 70
     0
 62
     2
  6
CONTINUOUS
  0
LAYER
  2
118
 70
     0
 62
     2
  6
CONTINUOUS
  0
LAYER
  2
119
 70
     0
 62
     2
  6
CONTINUOUS
  0
LAYER
  2
120
 70
     0
 62
     2
  6
CONTINUOUS
  0
LAYER
  2
121
 70
     0
 62
     2
  6
CONTINUOUS
  0
LAYER
  2
122
 70
     0
 62
     2
  6
CONTINUOUS
  0
LAYER
  2
123
 70
     0
 62
     2
  6
CONTINUOUS
  0
LAYER
  2
124
 70
     0
 62
     2
  6
CONTINUOUS
  0
LAYER
  2
125
 70
     0
 62
     2
  6
CONTINUOUS
  0
LAYER
  2
126
 70
     0
 62
     2
  6
CONTINUOUS
  0
LAYER
  2
127
 70
     0
 62
     2
  6
CONTINUOUS
  0
LAYER
  2
128
 70
     0
 62
     2
  6
CONTINUOUS
  0
LAYER
  2
129
 70
     0
 62
     2
  6
CONTINUOUS
  0
LAYER
  2
130
 70
     0
 62
     2
  6
CONTINUOUS
  0
LAYER
  2
131
 70
     0
 62
     2
  6
CONTINUOUS
  0
LAYER
  2
132
 70
     0
 62
     2
  6
CONTINUOUS
  0
LAYER
  2
133
 70
     0
 62
     2
  6
CONTINUOUS
  0
LAYER
  2
134
 70
     0
 62
     2
  6
CONTINUOUS
  0
LAYER
  2
135
 70
     0
 62
     2
  6
CONTINUOUS
  0
LAYER
  2
136
 70
     0
 62
     2
  6
CONTINUOUS
  0
LAYER
  2
137
 70
     0
 62
     2
  6
CONTINUOUS
  0
LAYER
  2
138
 70
     0
 62
     2
  6
CONTINUOUS
  0
LAYER
  2
139
 70
     0
 62
     2
  6
CONTINUOUS
  0
LAYER
  2
140
 70
     0
 62
     2
  6
CONTINUOUS
  0
LAYER
  2
141
 70
     0
 62
     2
  6
CONTINUOUS
  0
LAYER
  2
142
 70
     0
 62
     2
  6
CONTINUOUS
  0
LAYER
  2
143
 70
     0
 62
     2
  6
CONTINUOUS
  0
LAYER
  2
144
 70
     0
 62
     2
  6
CONTINUOUS
  0
LAYER
  2
145
 70
     0
 62
     2
  6
CONTINUOUS
  0
LAYER
  2
146
 70
     0
 62
     2
  6
CONTINUOUS
  0
LAYER
  2
147
 70
     0
 62
     2
  6
CONTINUOUS
  0
LAYER
  2
148
 70
     0
 62
     2
  6
CONTINUOUS
  0
LAYER
  2
149
 70
     0
 62
     2
  6
CONTINUOUS
  0
LAYER
  2
150
 70
     0
 62
     2
  6
CONTINUOUS
  0
LAYER
  2
151
 70
     0
 62
     2
  6
CONTINUOUS
  0
LAYER
  2
152
 70
     0
 62
     2
  6
CONTINUOUS
  0
LAYER
  2
153
 70
     0
 62
     2
  6
CONTINUOUS
  0
LAYER
  2
154
 70
     0
 62
     2
  6
CONTINUOUS
  0
LAYER
  2
155
 70
     0
 62
     2
  6
CONTINUOUS
  0
LAYER
  2
156
 70
     0
 62
     2
  6
CONTINUOUS
  0
LAYER
  2
157
 70
     0
 62
     2
  6
CONTINUOUS
  0
LAYER
  2
158
 70
     0
 62
     2
  6
CONTINUOUS
  0
LAYER
  2
159
 70
     0
 62
     2
  6
CONTINUOUS
  0
LAYER
  2
160
 70
     0
 62
     2
  6
CONTINUOUS
  0
LAYER
  2
161
 70
     0
 62
     7
  6
CONTINUOUS
  0
LAYER
  2
162
 70
     0
 62
     2
  6
CONTINUOUS
  0
LAYER
  2
163
 70
     0
 62
     2
  6
CONTINUOUS
  0
LAYER
  2
164
 70
     0
 62
     2
  6
CONTINUOUS
  0
LAYER
  2
165
 70
     0
 62
     2
  6
CONTINUOUS
  0
LAYER
  2
166
 70
     0
 62
     2
  6
CONTINUOUS
  0
LAYER
  2
167
 70
     0
 62
     4
  6
CONTINUOUS
  0
LAYER
  2
168
 70
     0
 62
     2
  6
CONTINUOUS
  0
LAYER
  2
169
 70
     0
 62
     3
  6
CONTINUOUS
  0
LAYER
  2
170
 70
     0
 62
     2
  6
CONTINUOUS
  0
LAYER
  2
171
 70
     0
 62
     2
  6
CONTINUOUS
  0
LAYER
  2
172
 70
     0
 62
     2
  6
CONTINUOUS
  0
LAYER
  2
173
 70
     0
 62
     2
  6
CONTINUOUS
  0
LAYER
  2
174
 70
     0
 62
     2
  6
CONTINUOUS
  0
LAYER
  2
175
 70
     0
 62
     2
  6
CONTINUOUS
  0
LAYER
  2
176
 70
     0
 62
     2
  6
CONTINUOUS
  0
LAYER
  2
177
 70
     0
 62
     2
  6
CONTINUOUS
  0
LAYER
  2
178
 70
     0
 62
     2
  6
CONTINUOUS
  0
LAYER
  2
179
 70
     0
 62
     2
  6
CONTINUOUS
  0
LAYER
  2
180
 70
     0
 62
     2
  6
CONTINUOUS
  0
LAYER
  2
181
 70
     0
 62
     2
  6
CONTINUOUS
  0
LAYER
  2
182
 70
     0
 62
     2
  6
CONTINUOUS
  0
LAYER
  2
183
 70
     0
 62
     2
  6
CONTINUOUS
  0
LAYER
  2
184
 70
     0
 62
     2
  6
CONTINUOUS
  0
LAYER
  2
185
 70
     0
 62
     2
  6
CONTINUOUS
  0
LAYER
  2
186
 70
     0
 62
     2
  6
CONTINUOUS
  0
LAYER
  2
187
 70
     0
 62
     2
  6
CONTINUOUS
  0
LAYER
  2
188
 70
     0
 62
     2
  6
CONTINUOUS
  0
LAYER
  2
189
 70
     0
 62
     2
  6
CONTINUOUS
  0
LAYER
  2
190
 70
     0
 62
     2
  6
CONTINUOUS
  0
LAYER
  2
191
 70
     0
 62
     2
  6
CONTINUOUS
  0
LAYER
  2
192
 70
     0
 62
     2
  6
CONTINUOUS
  0
LAYER
  2
193
 70
     0
 62
     2
  6
CONTINUOUS
  0
LAYER
  2
194
 70
     0
 62
     2
  6
CONTINUOUS
  0
LAYER
  2
195
 70
     0
 62
     2
  6
CONTINUOUS
  0
LAYER
  2
196
 70
     0
 62
     2
  6
CONTINUOUS
  0
LAYER
  2
197
 70
     0
 62
     3
  6
CONTINUOUS
  0
LAYER
  2
198
 70
     0
 62
     2
  6
CONTINUOUS
  0
LAYER
  2
199
 70
     0
 62
     6
  6
CONTINUOUS
  0
LAYER
  2
200
 70
     0
 62
     7
  6
ESTILO_TQS_0002
  0
LAYER
  2
201
 70
     0
 62
     7
  6
ESTILO_TQS_0001
  0
LAYER
  2
202
 70
     0
 62
     7
  6
CONTINUOUS
  0
LAYER
  2
203
 70
     0
 62
     7
  6
ESTILO_TQS_0001
  0
LAYER
  2
204
 70
     0
 62
     7
  6
ESTILO_TQS_0003
  0
LAYER
  2
205
 70
     0
 62
     5
  6
ESTILO_TQS_0004
  0
LAYER
  2
206
 70
     0
 62
   245
  6
CONTINUOUS
  0
LAYER
  2
207
 70
     0
 62
     2
  6
CONTINUOUS
  0
LAYER
  2
208
 70
     0
 62
     5
  6
CONTINUOUS
  0
LAYER
  2
209
 70
     0
 62
    -3
  6
CONTINUOUS
  0
LAYER
  2
210
 70
     0
 62
   245
  6
ESTILO_TQS_0002
  0
LAYER
  2
211
 70
     0
 62
     7
  6
ESTILO_TQS_0001
  0
LAYER
  2
212
 70
     0
 62
     7
  6
CONTINUOUS
  0
LAYER
  2
213
 70
     0
 62
     1
  6
CONTINUOUS
  0
LAYER
  2
214
 70
     0
 62
   245
  6
CONTINUOUS
  0
LAYER
  2
215
 70
     0
 62
     2
  6
CONTINUOUS
  0
LAYER
  2
216
 70
     0
 62
     3
  6
CONTINUOUS
  0
LAYER
  2
217
 70
     0
 62
     3
  6
CONTINUOUS
  0
LAYER
  2
218
 70
     0
 62
     2
  6
CONTINUOUS
  0
LAYER
  2
219
 70
     0
 62
   245
  6
CONTINUOUS
  0
LAYER
  2
220
 70
     0
 62
   240
  6
CONTINUOUS
  0
LAYER
  2
221
 70
     0
 62
   241
  6
CONTINUOUS
  0
LAYER
  2
222
 70
     0
 62
   242
  6
CONTINUOUS
  0
LAYER
  2
223
 70
     0
 62
     6
  6
CONTINUOUS
  0
LAYER
  2
224
 70
     0
 62
     1
  6
CONTINUOUS
  0
LAYER
  2
225
 70
     0
 62
   245
  6
CONTINUOUS
  0
LAYER
  2
226
 70
     0
 62
     2
  6
CONTINUOUS
  0
LAYER
  2
227
 70
     0
 62
   240
  6
CONTINUOUS
  0
LAYER
  2
228
 70
     0
 62
   241
  6
CONTINUOUS
  0
LAYER
  2
229
 70
     0
 62
   242
  6
CONTINUOUS
  0
LAYER
  2
230
 70
     0
 62
     6
  6
CONTINUOUS
  0
LAYER
  2
231
 70
     0
 62
     3
  6
CONTINUOUS
  0
LAYER
  2
232
 70
     0
 62
   242
  6
CONTINUOUS
  0
LAYER
  2
233
 70
     0
 62
     4
  6
CONTINUOUS
  0
LAYER
  2
234
 70
     0
 62
   243
  6
CONTINUOUS
  0
LAYER
  2
235
 70
     0
 62
     5
  6
CONTINUOUS
  0
LAYER
  2
236
 70
     0
 62
     2
  6
CONTINUOUS
  0
LAYER
  2
237
 70
     0
 62
     6
  6
CONTINUOUS
  0
LAYER
  2
238
 70
     0
 62
   242
  6
CONTINUOUS
  0
LAYER
  2
239
 70
     0
 62
   241
  6
CONTINUOUS
  0
LAYER
  2
240
 70
     0
 62
   241
  6
CONTINUOUS
  0
LAYER
  2
241
 70
     0
 62
   242
  6
CONTINUOUS
  0
LAYER
  2
242
 70
     0
 62
     4
  6
CONTINUOUS
  0
LAYER
  2
243
 70
     0
 62
     2
  6
CONTINUOUS
  0
LAYER
  2
244
 70
     0
 62
   240
  6
CONTINUOUS
  0
LAYER
  2
245
 70
     0
 62
   240
  6
CONTINUOUS
  0
LAYER
  2
246
 70
     0
 62
   244
  6
CONTINUOUS
  0
LAYER
  2
247
 70
     0
 62
     7
  6
CONTINUOUS
  0
LAYER
  2
248
 70
     0
 62
     7
  6
CONTINUOUS
  0
LAYER
  2
249
 70
     0
 62
     3
  6
CONTINUOUS
  0
LAYER
  2
250
 70
     0
 62
     7
  6
CONTINUOUS
  0
LAYER
  2
251
 70
     0
 62
     1
  6
CONTINUOUS
  0
LAYER
  2
252
 70
     0
 62
     1
  6
CONTINUOUS
  0
LAYER
  2
253
 70
     0
 62
    -4
  6
CONTINUOUS
  0
LAYER
  2
254
 70
     0
 62
  -240
  6
CONTINUOUS
  0
LAYER
  2
255
 70
     0
 62
  -244
  6
CONTINUOUS
  0
ENDTAB
  0
TABLE
  2
STYLE
 70
     1
  0
STYLE
  2
STANDARD
 70
    64
 40
0.000000
 41
1.000000
 50
0.000000
 71
     0
 42
0.200000
  3
ROMANS.SHX
  4

  0
ENDTAB
  0
TABLE
  2
VIEW
 70
     0
  0
ENDTAB
  0
ENDSEC
  0
SECTION
  2
BLOCKS
  0
BLOCK
  8
0
  2
_POINT
 70
    64
 10
0.000000
 20
0.000000
  0
LINE
  8
0
 10
0.000000
 20
-0.100000
 11
0.000000
 21
0.100000
  0
ENDBLK
  8
0
  0
BLOCK
  8
0
  2
ACAD0001
 70
    64
 10
0.000000
 20
0.000000
  0
ENDBLK
  8
0
  0
BLOCK
  8
0
  2
ACAD0002
 70
    64
 10
0.000000
 20
0.000000
  0
ENDBLK
  8
0
  0
BLOCK
  8
0
  2
_PLWTQS
 70
    64
 10
0.000000
 20
0.000000
  0
TEXT
  8
0
  6
CONTINUOUS
 10
0.000000
 20
0.000000
 40
0.200000
  1
$PLWDWGGlBMVwAAAAAAAChAAwAAACQI4KvVOkTdqjahDF9EGoV6V/x31+/X529WJnrz64YHDijgZiHrp4cB8ssgvhuIDOdmctr608K4isNjYK+SEac2eI7rdHjbpa5tUalrxvwm41yk740RAYn82iymAkoqyXaVUx6bIEMgLkpXegP1cBY=
  0
TEXT
  8
0
  6
CONTINUOUS
 10
0.000000
 20
-0.250000
 40
0.200000
  1
$PLWDWG1PvWLotVqTUlcIO2PCsiy4A9cqHmiLW3s/uyUcKE4m8R6aZOPUs5FicJLiw22gKPDjSz8qSPNS+eOFieasC6nqodzu8HD6Y5JVuzE4HWLltPK2FoMuoUfTwZhAG/JK8/cwqIKXgKiip/MpQYqQGKJRhNfVci1YgdPJqQ7rF6x4k=
  0
TEXT
  8
0
  6
CONTINUOUS
 10
0.000000
 20
-0.500000
 40
0.200000
  1
$PLWDWGesqzAdo09Z84u7TyfYgANLCTgjTZevhPaYszy0zlJvgxe0ylHHnyedm9msW2zY4woK/9+OxrhEFakOvhkvYTTyXRz7u8sraZ0bOXu/kj/hir6uU41x/5TB7lu/6uH280F2fBwVxrEmq2a/+vKgGu1WNlmwkKnKW7lIL20Jaix08=
  0
TEXT
  8
0
  6
CONTINUOUS
 10
0.000000
 20
-0.750000
 40
0.200000
  1
$PLWDWGUlFyIdrLqf/0wAY9qJ4RgfF888TwlxNIPX9bXVc3TVmUTwYtQPDyYpxKIIVbd/J7V9FS/4CgVRs+k7sMlPybqam6sDTWH355dU1b8JdCl710IG+hWJ6z/aCg4FsH76qh32p39pO+Ja+EoEBBjHEUVfLp2RpW91fzksFauxZLMW8=
  0
TEXT
  8
0
  6
CONTINUOUS
 10
0.000000
 20
-1.000000
 40
0.200000
  1
$PLWDWGbIAHl/QJHP0ocWr/Exp3NhQ6MSkx37/EYXXnw9kxMvLjawa4B4sjTH4X9gU5OQ7epU8Xz79IhgOSZlYx30bedjb9a2hSxowKeFHCq0u23XsIMhc4i4ovz30dU5IllGs3EUzJDaVAELdcD5qnI96iAYhWWyDa2s5ClIVP7dUiOp0=
  0
TEXT
  8
0
  6
CONTINUOUS
 10
0.000000
 20
-1.250000
 40
0.200000
  1
$PLWDWGmFwYhxFYQlcev4/VdqwYSHESh43q4+QRBb5Hc6yVZvDiDu44qTySJpWCnizb2BUoTjrtRoHn2DShPJ12MORcgOrbetMtJ27J0QP842FmWTAIPfkSq8J5lMfBmMDMbgMmyj+xXhTjazGuI2JQJx0WrnfxixymsQuntmfwXxSamvo=
  0
TEXT
  8
0
  6
CONTINUOUS
 10
0.000000
 20
-1.500000
 40
0.200000
  1
$PLWDWGMvWXRsa/1ejvhdXT7vabxYl6Skzz7JrmKmJoeZLg9wMnWSvQyIwShRmL6HxHwyJ4ce8ouelnJ2hEqLWvvqbJlpYx6+GGGej+9r+nNqxvU1C8+9tDBHZfafr8iRd0oh9npb8OQnYxPQd+tyEv3Ayv9wj+YnvUE0PIqE+oypqO6xI=
  0
TEXT
  8
0
  6
CONTINUOUS
 10
0.000000
 20
-1.750000
 40
0.200000
  1
$PLWDWGwYd9h2P7Zv4leF2ZWPVisZVqFFggjcMCqZrMgCaluxuf7R/azt8YkSvrcSuOjD1ZyNO/3AfDRMewUVj5CJ85aN3JVBTm7jKhH7QvU0UfQ9vgGjooNmJcK5bjMe0ba6ZXVNtHKQdCPT3EnZahgzYHbjnBauSiQhD3aztFGzmh/LA=
  0
TEXT
  8
0
  6
CONTINUOUS
 10
0.000000
 20
-2.000000
 40
0.200000
  1
$PLWDWGmlTwptkdR9drPtRX5WzqtPdkwl22cvgujFog0ynhX+c1+kRFxkl4eNChIydAY0r05g0qHdPmMCl0oD5m3j0RLU4gjirxkPbPAiTUHhZh1ZGHcWe1f18vDbOhqTRW4bQGge1EbKndw4w5J+sNB4O45Ioy1ZjlV2f7L2nc1JCN+wg=
  0
TEXT
  8
0
  6
CONTINUOUS
 10
0.000000
 20
-2.250000
 40
0.200000
  1
$PLWDWGjt07YixYAzP9R6qAnKoe2ArdnHojEKYO1lpcKmld7fm16nTX1Wq5bGUQ5ry9cgue7nIUS+5dzfOdFjFJ90HaKVZhpodh2pjBW9x2zfd6h6PQb7fiwjT7D5/c1VANNFiiGFzyl5kAJPtI49Fz4If4JEjXYxmdshejOGr/Iv5K5yQ=
  0
TEXT
  8
0
  6
CONTINUOUS
 10
0.000000
 20
-2.500000
 40
0.200000
  1
$PLWDWGB3eL373jeP64N9vc8PIHfKghVpBhzb/mWZRPdLgeOUMsUTmIeGGfNs/wRGPiosWiS5KKbakFwpe9Bjux1/DjF9SEM9H9V2165J8tjjvdMhcSM5xs4/YL5rg+FKwdK059DYlJ4tMXMReeRiNXRLFJWYFumU+7hK4V4A0uV1IeE4s=
  0
TEXT
  8
0
  6
CONTINUOUS
 10
0.000000
 20
-2.750000
 40
0.200000
  1
$PLWDWGuJAofKBh1T717Bdqr18eb81IsxQgsJedX9ZKZpw6xuq1p+dvpED0/98fJwYdGQHsznZLNyim5sVHI0ta41HfI3/qpQpeGYZBM/2ufIhaS9zNjD6MU2vfDpbpG3VVJoOzDUl/AsJiSj8fS/KCA25AiwxqNgTn412XktJYICN/StA=
  0
TEXT
  8
0
  6
CONTINUOUS
 10
0.000000
 20
-3.000000
 40
0.200000
  1
$PLWDWGI1LyhVXNXDFWYZdJms9e//MbYwA+M2Ui0nYliViKme5/gl8TPR0q/H1dAGgl76ueQdCiXSreKoZ2uqqBuaIaQWqDXiT2u0r7Re8pE8RW1FOIZSzyNeJYXbWUORyweRi6QINKIFjTwX5uDkdHO8BeKqOStX6kJjcRUkDg8BszPL0=
  0
TEXT
  8
0
  6
CONTINUOUS
 10
0.000000
 20
-3.250000
 40
0.200000
  1
$PLWDWGGhtTUhnTgKlXtTvWtr5x2tySsgh2/SY2ZFi8pLdxYFeyuo6nupXIC4QqkdXeBIQ40R9BtGNd8UjduGUb9feAIUGgNZN1WFeRoe8/5Hdas6SYufN6FO3fLFxNf0tlM7Tt6cuGvzOZOrKIi3ZqXOMN852ZxxMkVMpRiraIjRnqgl4=
  0
TEXT
  8
0
  6
CONTINUOUS
 10
0.000000
 20
-3.500000
 40
0.200000
  1
$PLWDWGKEuzKtzO644/fAdhJJKAeTtkSVqy0fAd4tUojwbMYWeDIKXIXEEqi2cqyDxZXf1kvpKwTTmyW7mdpG3P7jzxB/8a8vKT0IMAM3volhK1eUudmNiKC6C3Cb1AkpHAjb41PQdOcw7z7lMSsL1GrT16a4+gxpZl4xZaj0TdEnnN1GE=
  0
TEXT
  8
0
  6
CONTINUOUS
 10
0.000000
 20
-3.750000
 40
0.200000
  1
$PLWDWGhYrtMsmZ/dbVSgSYsYSC/0NVYLKRoRTxlUjO1Tvd+8NWxpidFn0HDLXN4hybvJ3r2CCQxJcRMUHC96tM6AtFQAWBGH96pQ96+twYvDE1RECk7mmE4OQdtlxyLqM0x/EcEGw7O9MACGUM6ZjhMn+cdEdCsGNVbcUQP9X0t6y2sT8=
  0
TEXT
  8
0
  6
CONTINUOUS
 10
0.000000
 20
-4.000000
 40
0.200000
  1
$PLWDWGHYw9LNf36s0kcDX5EtSdQ/GWQEmQ08Jersk9/UdF02mInyaZYrHGTeMskpNgIODk9+jPJNyvdP6xMKGrxCpE+Tmx6mMA30LE67kNzvLeHlw0fY+JZ56RioUqaLAMDSGcRZ6I4GcOCad8mh91m97FyT1gVR8FFtfHs5ZwiK1HUzE=
  0
TEXT
  8
0
  6
CONTINUOUS
 10
0.000000
 20
-4.250000
 40
0.200000
  1
$PLWDWGs+sG1+Vw23TL1k7dyMXarSiV7Ny9yW3gz7xLSDRkAIB7vx2DDuFfHy+kMFfru54FnvQtR8jGh64Awhc/432cPsZLdN+VtlD+/FEmlCLWoarm60l6JQGUXkpaw6+q61AVQhdSNZbgAVXyTuECVsbCi6bxIDPk9L2ykfIEILG2pfE=
  0
TEXT
  8
0
  6
CONTINUOUS
 10
0.000000
 20
-4.500000
 40
0.200000
  1
$PLWDWGX8Bqaek3bcny+GfMetzkxzgjNwNNC8BJPK58O6e//jY3rjlhbtrHwY8N9k2vNfTec+IfaSJ6FvRk+WcAy1QD760OWSRD6ArI4zmFH7ncmeDY6FolIeLkABK3EQs41yBoW31DwtyegthP5K89/+thW+gBFe2z4u1QO6cgtB1lAd4=
  0
TEXT
  8
0
  6
CONTINUOUS
 10
0.000000
 20
-4.750000
 40
0.200000
  1
$PLWDWGkrsc43uP1tU2EWUTHN+ELLziqbg3mwkDz/mwMiLEx9iomvjfy4mW2OkLB2+aVFeCFzxQ8NbWVDuJsMny4VOibWQK8oI4lcRvPrpOe5X0ofY7eWNXKg3Q+NYdktVmLN7MrUxJJW1+w5EWxWdy2OmH7krFloxl2kldGYDJCA1/GMo=
  0
TEXT
  8
0
  6
CONTINUOUS
 10
0.000000
 20
-5.000000
 40
0.200000
  1
$PLWDWGlytuihFuj6KfpPWTd7SuQ1CqYm9SpUEXMaVSUS3n0HKhrblL7Q0EQ8DNlbIrRqjmCNeYbgxnODzKVcYbwpaEGuKsFxYhY3m9RjxbxddxGkQAsGg1jMH1YrKEIwvtZsihfu+wlFSOP7OEMYEmAYkm9AjH+4rnCtI7dT2FQlfpGsY=
  0
TEXT
  8
0
  6
CONTINUOUS
 10
0.000000
 20
-5.250000
 40
0.200000
  1
$PLWDWGeu8KDEYxm5U/vwkFHAcIG6fvR5FtfYJFc37Jm3pwHIR5O1braa8NIukR7thAkUwUaDiY0dlyFFYYnfx/SR5J7MYwGWBGMTLZhqCurMWuv8s6eu0nBpYmP1yxZG0aZt21riceUBiLBgm5TJrQ6V1/ZhQpsvUBfMWHKertXmcVy4E=
  0
TEXT
  8
0
  6
CONTINUOUS
 10
0.000000
 20
-5.500000
 40
0.200000
  1
$PLWDWGNtmiYOeHovJDWi1P0ftHInQPnFIFNFeDWBl/LEWZv2EvIFSiDlauYT9FFTa+HpT18/Du9N1Qjn1nMPY9mRhXPETJu5u+EX4fzrVT7UhEV3Sd4DUDmhD7tEahFAVLJnSRitzn42JDBugFzDXk1s1/iOFqd2fNOlgNVlodayNZOiM=
  0
TEXT
  8
0
  6
CONTINUOUS
 10
0.000000
 20
-5.750000
 40
0.200000
  1
$PLWDWGtPpu/jEDQ0E5g56jXCIZkvJ8ttwEG6bJGCkpdwyvPGLWXmPVV64SACLV+mNQsx7NVyqCRMN1ARGy8Dfw4L3KGAdj2ipcs5sWjJAbcdPNsCjgxoAmBrh8qfgq226QW0UP204/L0XZxYrwiaPi4spZ51MRuCO1z4VhCDgzh9lGHkY=
  0
TEXT
  8
0
  6
CONTINUOUS
 10
0.000000
 20
-6.000000
 40
0.200000
  1
$PLWDWG6UJVCb6nvJQ8mKGC9gqxfEn0zLn31vqouQzs/KPHbSNYHMGg5O4mW+KvBvhmq6kDPMY2hSglMcfiZw9nPc0jMBhP5bFZzoGhekoc1WzJNf2ReJd/GpEmohnYeKjrfVQ74516+AxjZYmWx+T11GnozD2YtQ2H9ep86QQAH30kP3A=
  0
TEXT
  8
0
  6
CONTINUOUS
 10
0.000000
 20
-6.250000
 40
0.200000
  1
$PLWDWGKeLxhOnlLIXXbfoS4XqkxPyeA24I+2oZw8J03khXH0qiHWY6ekCIivVMTgGlVa7+yJamqUZs9eJFL0LWHUPlIihBOgb9r4suMFW8Ih5r9/MqgrB4dzjviegtprGZqAY6lCGMwlILEk0pRkAQ6PD3c8/HdTKKF04+mfuEq+4Ms0c=
  0
TEXT
  8
0
  6
CONTINUOUS
 10
0.000000
 20
-6.500000
 40
0.200000
  1
$PLWDWGV3sFHW02ZIA8Xr6/X0DtkrKZeqRy+Yw6DNhikE9p8c7StT9zyLnz7BvfUDEVcnHTnrYHYxqqOBTgA0v0ujmgKw3rWExzm4Ruk1wdnNV1Zh65Du0FTVuDp0rdw93PoKTg9hF5SMmm/6u2fG5BMLOpckMhCdUu1R0XIQbMJDCEkuo=
  0
TEXT
  8
0
  6
CONTINUOUS
 10
0.000000
 20
-6.750000
 40
0.200000
  1
$PLWDWG7OzCitBmm47Qr+/LOf/a0xmN58B6yFKHwidnwsqDZbhhcdK07NlhuwwuEAspLO08FrvsoqHpuhZRtDeA1vph+/OG1WKKXlvepCNmjFdppT7RAKRhKr8eVhcZYwi3D+mmZM9VZE+hcW8798wDe/o7clGbPZsCZy/PtKIPZvk1AD0=
  0
TEXT
  8
0
  6
CONTINUOUS
 10
0.000000
 20
-7.000000
 40
0.200000
  1
$PLWDWGCzCGpNhcpCzT557QkxWT2tpaGA91ggv2ZxVNMElYC5bzhln3M22zSPwOV/zNYUabA0vGifcSiUqAGED2ZD2dXJm+1JdNNHkKXuJ9rnjaKH7KmpCquAiYI3VzH1wjw+iJKasjdbriiaP5MW4wZ40twD1GtPIcQWnqWEcWZZuYhmw=
  0
TEXT
  8
0
  6
CONTINUOUS
 10
0.000000
 20
-7.250000
 40
0.200000
  1
$PLWDWG13hJHTa8vZFveUwtd6xvaSkFrsFJryx3UsbFUugcGmSk9mvp0GtU/2lppVdiN9SWPR4+3Qn9LoUaTrnBNhgx00qBxN0DYvlT/Am25BXNJJz7NUrGPa8TTdiCGdc3XjP8nX/KT1Jnpq/VQeOa++yP9X8DWBBqrwjcAdYATHQtRtE=
  0
TEXT
  8
0
  6
CONTINUOUS
 10
0.000000
 20
-7.500000
 40
0.200000
  1
$PLWDWGd9z295UXVPYYHhzRqLUB6jzdsU2QxyGL4S3ARh7oZ6V4OMNDalYsj0DM89FYy5qDaavSY0TQWiHgjDTjyxfTje5nsRfBwTew2Lroj/RS0I+Rc2AgETS4aRDiNoONFa4Uz8+G9uzxGsFz243Yr6GEtaDWuBTO067S21Iw7WVLrYc=
  0
TEXT
  8
0
  6
CONTINUOUS
 10
0.000000
 20
-7.750000
 40
0.200000
  1
$PLWDWG2SMoynFiFODnwgjSN3zPG0lSs0Fw+/HMVEETc3K+G2X54mi2rDHfkECJM9vvPtA6dtGdpXYCpSshPoaFRw4AnVXh8nGjxVqt9CxTdl7gDkZGfw5U2/o0dAt3air0rKoDiNM0JiWmywY17rxkmQB7EvWvZ4Nexpn2JpfqX/HCsF0=
  0
TEXT
  8
0
  6
CONTINUOUS
 10
0.000000
 20
-8.000000
 40
0.200000
  1
$PLWDWGuyu7ZGo2cvv/RdHYHq8mWNq2rkJilJsaaiTFhurSByLKCGUaMp4U+sR+TslA0TTz2MdCCjh4BmUbu/YU6PiCz66hutHU0hTgxww8XrMP3hePzDecCp73Gfo+qMmO4Jw3QdJ1j5qxzjVrEAmEHG6LSI7NsOoP+5CnNL8cMWStsn8=
  0
TEXT
  8
0
  6
CONTINUOUS
 10
0.000000
 20
-8.250000
 40
0.200000
  1
$PLWDWGkpvIp5Mq5pyh6e5chEjuDlX9edIosStIcbu9QQ9buDQqASnM9z/ADktAg4Obk6726KdQCreArA3chwgYKYr5puT1+2VbhdT6gs9DTC1JzKZObaNbrwT8ytTp25MXmz+NwpQZvTJQoPnObdGjIhx08piWVLpFZreQB7JgJObWsto=
  0
TEXT
  8
0
  6
CONTINUOUS
 10
0.000000
 20
-8.500000
 40
0.200000
  1
$PLWDWGqWT2ftotfWF3P5S9Tml6Ga8c4vbCqeCWcxG/OpJp3vPOMRRYb6/zL3rTm2BJwA+Nr93W9QmkaBf8yGw6IVOhEDgT6dS9dyTWOyNacAbj+9oURrOPuLdm7F8TaLfIMoQapLeAX64m04HXJW42QNYOM0qlddJUIaQKZgs/q+RZXSs=
  0
TEXT
  8
0
  6
CONTINUOUS
 10
0.000000
 20
-8.750000
 40
0.200000
  1
$PLWDWGL9VrBymSnYRKm1axn1eKuU3b14m9wOrnK0B3bAfPRY4W0tg7X64NkhT8lqnd63jmqBq31y9C7fb+3COOlVtlkMoAvB+nKXz6DdNEH2/RFsPNu+uRDHuKR6H5AnyWJrnfVmchpiEa9q2rPYWDRJaQJsBPyYFXAcBvnqZhPkSfPC4=
  0
TEXT
  8
0
  6
CONTINUOUS
 10
0.000000
 20
-9.000000
 40
0.200000
  1
$PLWDWG6iM2WgKIs0qSehVJBpcyDZe4vkEcC/rUa9f+OBhUraDW1ED1KRvKT30J6myXgLo0IFPmVcJDkN6v4tgIIdX3Qq1ik4+XsSyTIcIq8ow2enfxAm4oDsmwxYDvZWeqa2TdIcHD5acET+6DEu9eYHvb8yMeaXxHEc+BFnKTb/oZQT4=
  0
TEXT
  8
0
  6
CONTINUOUS
 10
0.000000
 20
-9.250000
 40
0.200000
  1
$PLWDWGSdzYa8X6BdlskuZRiWr7lU2cY7GVKJk3WLsiDVazTC0oa8IAU1pOTRvaohTs9DcvCn9IawFCx+0SdumtqvMRYylh+28BbeLR175JbiXaLW0LvBiM+RYAgUd2Gp0o2Z9qHHEoO0R0pHRbRPq9rUL0qfuwCb/5MJAJfKfQy466PI4=
  0
TEXT
  8
0
  6
CONTINUOUS
 10
0.000000
 20
-9.500000
 40
0.200000
  1
$PLWDWG3A3Cr4z9s7skvCs/HHnuWwtuKpoc6mdmloNthh3x3Inkxd2kuMPwXQARzcNqJxNME980mQmm8mSBzn0Lc9VPBz+Q8ZVyfx9nY13/U5fLQbhsEcfu2IXc4d/9eYvgA64wnO8QS0/lexB8HX8D+wOYYwdjSYLvPRGKF9A0haT8hdE=
  0
TEXT
  8
0
  6
CONTINUOUS
 10
0.000000
 20
-9.750000
 40
0.200000
  1
$PLWDWG9twCCkxGvxJ1FlDfuBJFpJtM5FcUNm2jHtVQ5qkkrLXyzQ4NXkTeJdDMN1XXhTNOfG6QqC/1tmEX46cLtBNwvbmIrgHaCX7j6OjWjGm7jp4FzTDkhP9jf6ISXvXfSAUiWzOkJ0zAet+qENIyJ6wviRr/o+zIOobWApCE9j0iyYg=
  0
TEXT
  8
0
  6
CONTINUOUS
 10
0.000000
 20
-10.000000
 40
0.200000
  1
$PLWDWG/dNAcgKRRsNcCHcRj49KwyrEIdTmsKdiWzECV6RKfmbbxgsUKhsBhU9j5p8qccisONkCfF3Cg8PTRFOzvM68BCv3CfulqHO2lijdMPIPwPV67s8vuoIVAySp5nVYCoos858xrsURkWdm/ZBH//shDWbDJVJMvlj5cSln4SYeXYc=
  0
TEXT
  8
0
  6
CONTINUOUS
 10
0.000000
 20
-10.250000
 40
0.200000
  1
$PLWDWG40snm608axpdW67wScf2TPAZh6Dx51YEBfSgwhiU0Wk07U0ImxGtGTpHCuCPEyOOtRntc4S7+zTAlJcR4qsTLnCcEx8TxZAK5ZMKZI+2ntX0yTLNwwHSYIxiIZfxWhZroUy2rZPvClf4Po5hZLjdyh3U4VTYIWY1fetln23ggyU=
  0
TEXT
  8
0
  6
CONTINUOUS
 10
0.000000
 20
-10.500000
 40
0.200000
  1
$PLWDWG3oujhexITnAjFYf8tVae+jrBI4MxaMxU9h+BM94zT32dKkzc7GBaJvCF7w2WYfTHHWp3u+o5ImD98yzg6Mv4MLdB4wPhEEm/yPLiDKwYp6P9ZtjxbAnbCgscSrntLxH27o10CnE3Zt3UUNxZw2UpjmVAfPDsoWCAIgGhSffDf6o=
  0
TEXT
  8
0
  6
CONTINUOUS
 10
0.000000
 20
-10.750000
 40
0.200000
  1
$PLWDWGBJH+RvDS+DyP5RE6FOmrknmc2IQ1nPrXQLmMPT5Z6JXh8HwFM+GSaSjtNluzPlfV1Ip97NsdgXpTU+M5Ar1xI7ReqDDsRjOHGuFLuQ5o4MGQ4tS/Qsl9C5icLtQZLm/XRxK18h5+yO8tGiNhJhplNU6AAgGaXpYzVmutePzSG1g=
  0
TEXT
  8
0
  6
CONTINUOUS
 10
0.000000
 20
-11.000000
 40
0.200000
  1
$PLWDWGOAO+5VasWg+7zARTZtdYo8a8FDZDb50ywI83OT7jNzIV6uo8BRbCYlbFkT8h770c4acJ/S8oPDO3g1RzS/Nl/azIAZi6zPZkDyWNwBMYvOivjbnu8wxCuICs/VU/s1vk4jM18UkH5C5JO2wHw4zLbRVAYK16sxgkuzfB5CWgtRc=
  0
TEXT
  8
0
  6
CONTINUOUS
 10
0.000000
 20
-11.250000
 40
0.200000
  1
$PLWDWGkDOVv5h6xpDpZHLufPIicx711b1Dc5T0NxMlpW6o8OI63e6Ith/FYdwjZR5O5C6JdCMhO67WSlkMZJLmm0B1q71hDDaFBj0D+Dpx+RwaqWEF0safXHjPTA4330Ggpm8DaiCQFZoz/MLqGVJt62GXWZqBj7EJ6MB9OwIHzwa0Y2A=
  0
TEXT
  8
0
  6
CONTINUOUS
 10
0.000000
 20
-11.500000
 40
0.200000
  1
$PLWDWGyf1Rrk8TJ6B4P/b7peQyprNGeazJBFXUQsV5DE5GWNnszf63LteppWEO1yY0CPj+2Rjd1/wDRAFE6ahWAhybvVrFOBximyvQhACE/1BzEPmWxL/KiSoWYjgrZNB/EVMsU2gShhxDZk1UHdgPFvjQIEM3FSojk4NeNcEIo1qd5wU=
  0
TEXT
  8
0
  6
CONTINUOUS
 10
0.000000
 20
-11.750000
 40
0.200000
  1
$PLWDWGU4oyiLix8BzcWEWnlj6kWWi5K99gfjzHzuMawcDJ7jJXaNNJdLTTdWWTZFSxqU9TM7QiSV+oJUkXs7nNuNEGUDMU46PKdT7wv59kJNyY3xKSvmMRB8hra7SOqibYSERABiUU9bkMMaq0jqom2EhEQM1y44PjqY+bbBU3ZTZxsNM=
  0
TEXT
  8
0
  6
CONTINUOUS
 10
0.000000
 20
-12.000000
 40
0.200000
  1
$PLWDWGjDwcmsI0pT+2r4DI7dnMgjA9soKyz040iusy672k6OMv12/APyXaX3SgYzCKtYxUpy/7nZubhITBGFfZHtgLeGpQXe70hkCLhH/5n737y4tY72HEb4qeEvEHiEmBa8Zt3/OFjVEfb+GYnZyJr1HLgHfg+5J926Fp+FbnFOm2nas=
  0
TEXT
  8
0
  6
CONTINUOUS
 10
0.000000
 20
-12.250000
 40
0.200000
  1
$PLWDWGzdzMghQ0ydUFHHpmAt8WOwOv4Zxo7vekUJ32c8K77sEbpJio9kvydW7C/DlypDJPatLh+WQ5kL9X8upXyH8pgmF6f2lOp9GSMF0boA6B+q2q04ZQGtdHvYufWDeaY+UP+JlkxcUTXLZgpkSncBLjUeSTyBszGfrcZO83fxBI85k=
  0
TEXT
  8
0
  6
CONTINUOUS
 10
0.000000
 20
-12.500000
 40
0.200000
  1
$PLWDWGPbHA6OCIWz6A5KLOuIEGv+KJx4yrRRLOLIyygHc6d2ck5Yhm0QWp9onzu72nqIkG34TH054pU1CA212aXGEtEa/chudV1P6w2Uz3OQG1ihiJxpTYRSPUnPs4b+JMNfMhM5gIjsikb1/0D4dshLB1d/JG/ppXFgvtsWcyVnlMXJs=
  0
TEXT
  8
0
  6
CONTINUOUS
 10
0.000000
 20
-12.750000
 40
0.200000
  1
$PLWDWGrJsO6FOAGJU9ckp6FE3eaP+N3wPhP3ncCt7RyHZduD5nKAQwaeQW+RUNUR3xcoB9GZqBgTEAVHPkUgrcpLOeS+oPbCrt5Il8zZ+2iQcczUDnbfZNLLM7fV0sc4KpPxcm7nblPlWV/8EtkflKErm/dsgSWRz6cRRCcjNBe43ISGg=
  0
TEXT
  8
0
  6
CONTINUOUS
 10
0.000000
 20
-13.000000
 40
0.200000
  1
$PLWDWG2tC8Z+ZBMKgXVy9xyQEzXjwq6rj05iA3yObi8phZy04RRoi45PiPhOYWVqp2X2eGNu2HCFIy7hgvmEjKkNDYSEFe8GoZS6Fh4R441wpcFO6SBsI1TZcV/kPG/Pv7/YNDpfz/mn0JzIpPVXeKi1jk3FoQiRMbmlTTjxm/cTE5gWw=
  0
TEXT
  8
0
  6
CONTINUOUS
 10
0.000000
 20
-13.250000
 40
0.200000
  1
$PLWDWGSdjb4KmO97nAaevlMDsfCl2LJQSIS30vYY9+dTzBzR+YkGOtcTGa2W2J74H0gC/PXJJeP7RViHIMJe2493+k+GiW8nJxXl0BpbWZXeSe6D+k4cpivmLD7pKxEXfCZeWPjs0Y0ZYLKv8UWf7YkQGkINOAjTjnQwlJ7T6W3O47sFk=
  0
TEXT
  8
0
  6
CONTINUOUS
 10
0.000000
 20
-13.500000
 40
0.200000
  1
$PLWDWGnyikhLhe9UQp2nXb6aeJpDW5JpX38k5VM7FM+bMGJdDkBAClKa7kKoYCY6s2WaxtfhacKGbzVmpC5/HgBm4l2nBANHuA5URjDkVjVW5MLyC4sdubPALRrU6OR3AJ4y4a0jilQwROSqSXtU7yo+HsE/2LxZQGM4ib37suDlZeoI8=
  0
TEXT
  8
0
  6
CONTINUOUS
 10
0.000000
 20
-13.750000
 40
0.200000
  1
$PLWDWGCy8YWmTGr/+jyPlyxvOUREhcwGRYSp78xAKUNCeqd4QH1bmjIeeRPa+bW12o/U9ptNA6DTc6rjqNIIBe2gEhYmwM/HYPAM3WTAEQnzpW3Xe1lgxHi9cNwWTndx+TlMRi1ImNkiO1DFC6YGtC5PXdMMdjAXUAeLCnOnr83vbtQEA=
  0
TEXT
  8
0
  6
CONTINUOUS
 10
0.000000
 20
-14.000000
 40
0.200000
  1
$PLWDWGBkAj1NjHykY6evze9u1AQClWgUCzP87MGHUNTUv8bfzCinq+wh21zunPW5r/wS150+gG7NYhkVuOrl/wpC/TabJ+NFuJk9vW07VeLhqN4gAtoPtX8i+BiuYEuDcftva7WRLS7/Ph32cI36TNlsFCR/d97EtVSkzoUzK6To6UUhY=
  0
TEXT
  8
0
  6
CONTINUOUS
 10
0.000000
 20
-14.250000
 40
0.200000
  1
$PLWDWGpJ8xucRMvLiS20LTa6LwqliduEvPQ3LkAM8+xczGYOyoQasSOyCaid15r0u+k/9hegFNx79BsXWH818ysM0UV+wjnY3EmRqqyhGdrLFsYYGfpCFXaPrBG34cY2tJBk/8oHcoehZdgdwJw0bp90Tu1PjoxzEw6AZs8yrOfRWZgoA=
  0
TEXT
  8
0
  6
CONTINUOUS
 10
0.000000
 20
-14.500000
 40
0.200000
  1
$PLWDWGM3PcC/9bQD/OO9l4TK4mc9dDPV27L7bSjdZ8eTB91vdEWYjsAXz92/GBcbgWxEw3+Ggz5GVL7bbrNb9GR8pGWWagQbl1KU/9dc0i3nuJPmQeT4YqOnL0LIUKQ0DdgALYKQ6MAmVgEWwUQWCKg+gvPe0PQLrXAyj5YZr8LRqXP1g=
  0
TEXT
  8
0
  6
CONTINUOUS
 10
0.000000
 20
-14.750000
 40
0.200000
  1
$PLWDWGkU5/E9YayrUN+BV7F04elZyonJ+D2FHMtBYcMUkPyaY7wcAGWb8GJcFpXS59Gb+UTOI07Mgi+ql6uSK/5TwSMRw1bfcATD+gb96frCRhZJKqnT/hW9iEeolfvZxLhwxGb3b92iYeqcXVhGgCL4IkX2vpl80s/B6m1XHaAQkeRTc=
  0
TEXT
  8
0
  6
CONTINUOUS
 10
0.000000
 20
-15.000000
 40
0.200000
  1
$PLWDWGGtuhHsqD+iFeH6UwJXE3+zaTi2bIVv++piJbKNG9I/UFIxI8m+FGOE/LhKPNFC6Pxe02zlKEc1T4rG3vSZ8JSmy56tpW3R5nmUrYKGkBh4QMjcKXO1bMp1bfgsaXMvPB73jUFjXdPPXJKH0WrNfdBPWTyN87sX7jbqS2Jc1qDvc=
  0
TEXT
  8
0
  6
CONTINUOUS
 10
0.000000
 20
-15.250000
 40
0.200000
  1
$PLWDWGO9WR0GalmgDhERihaXyc2ZkCIkDj1SKMAI4QkuO1ZFobD4bwgwmvAzJQKjEmGYta7RG/oX0zvxcfwxpxnb4OqR1L0sBX0Jvw5yBqPT3Y169kABggnDgoW9eMW9V5/l95FbxRt+XVury/WDybcVWiOezguFZgY+gQ2iD6pKus+9A=
  0
TEXT
  8
0
  6
CONTINUOUS
 10
0.000000
 20
-15.500000
 40
0.200000
  1
$PLWDWGNJVSqDmJvE9FRr4yB0pRzfQI8gyisLdLxn0gNcbazLW3gW10OchnKOfWrFT+2dqzyaqUovpP/QimOOJWyjaSV8C//z1XUDwJo6s9h73ailS8gKDmQWrzWaR/yM+dCd/W8P10JDS5KuipjAUbh4rQhEQcEltfFHB/oV+5Tb3Pq4Y=
  0
TEXT
  8
0
  6
CONTINUOUS
 10
0.000000
 20
-15.750000
 40
0.200000
  1
$PLWDWG2HwenD9+34GF2LFJeFBk5bVPAjCS/qZJIA+GN0t9pozRw5iGGL9C82+a0z8szcmJhTo8OJ+hbLMUeEHijHWEJhgn1B3jr4r7mtagbaMVIAz8bbgpLWTYYKhg7oWZw8nrgz97w3h68+HPGn9GOOhd3WFtJEifj3QiYP0MlvBLtGM=
  0
TEXT
  8
0
  6
CONTINUOUS
 10
0.000000
 20
-16.000000
 40
0.200000
  1
$PLWDWGBN/yMhvrwaiz7Sj5O6++f3Xbw8E+AmRQ8DEDlePEOkAcifoeOGgCIeQxA5XjxDpAwpBCD+n7o/Mw8gfXYvolkJfUUbj0AU2D9am95KQqao5VnGXbtRNz49s3xp3j41tNl3wpeo+ON5DMSVx+yZEEdVw10EMOy5sH8CbteT/VpqQ=
  0
TEXT
  8
0
  6
CONTINUOUS
 10
0.000000
 20
-16.250000
 40
0.200000
  1
$PLWDWGJkdBTnwKIDx4QdBPBDz4p5Q4HviS/0W7e63xmz67JuA+tFmNDbf5vXLspaJntOw5CY2zGwOFGJ9ois0C3AC/ukJ2dg1Alet8j9G4u1l0C9f45UFhdq2ZoiNhytvMfksGk6uGFk/GnjFh7r6eOK22y90pxUk71WPYtz1dNSYPyfI=
  0
TEXT
  8
0
  6
CONTINUOUS
 10
0.000000
 20
-16.500000
 40
0.200000
  1
$PLWDWGU/lwqdxWrUcr6xmvkcfE2x+bRg+7bM12b2dApw0vP6UiBD5L3pdHjUD6LIoc/z/KGkf9Ley41H2GnacNbzUOLAIiR/kspb7GtnHHfI1Up2HjR++DEErNYKG8M1nPIoNlR69kELKYXIZmaLPpld89RkmtZ9xnha62f7s8HHXetMQ=
  0
TEXT
  8
0
  6
CONTINUOUS
 10
0.000000
 20
-16.750000
 40
0.200000
  1
$PLWDWGllMk4DBDw1eUnm5nSJMs7IN7v7+mDObnZUb7YD/5PZPFbtOm0gQ5KKhPC1jTTcPtaawbQ+Q4a/sYk0oTyjoGlUZ5bvgU4HLlMyHT7zVAUX17tHIINzVhQSr+8DzKHmXq1arXpBa4x4gtJFbmUJTiLcJU+btPKvrFW/LL6ElOfEc=
  0
TEXT
  8
0
  6
CONTINUOUS
 10
0.000000
 20
-17.000000
 40
0.200000
  1
$PLWDWG6XUb7T/9wcBmhxZ9HNp2q6QOzbBt/tWP5rdLHD4IoC2RGCntEpoAC6D/d7qNFoJHPAyn8atLTglrwf7T19GHIlYPBPOGbrS+LLsmj8xYsM+fOH/tcW9U02/yRJYHbAAz8jQ39gOaVj/y5tsHOJ4OelJiuzSLBdUfA7cHIHEj4OE=
  0
TEXT
  8
0
  6
CONTINUOUS
 10
0.000000
 20
-17.250000
 40
0.200000
  1
$PLWDWGyYi4rfOE474PoYLM/aePGjSoJdt/1GMHuzvyaOzkxxqHVCNULF5UBCwWqgsQB2fjNNJBk3QWQ+6IsXyTyJDnAWQu9dG+olZYoI0ZQAOfuI0wt3ZPF/PgRdzmuVewrFN/1+u+ry9FYJCjKoBu72lcWBNXMimFKANhftpsmAXqUhc=
  0
TEXT
  8
0
  6
CONTINUOUS
 10
0.000000
 20
-17.500000
 40
0.200000
  1
$PLWDWGu2iFFWJon54qoR8H+U/Jd8OMm90zrMgfWxRe+nGFfw9emJIi2rkqGT2oFYzGxmeoDm//UhWhKB8APlEgjNJZ/pvXCq03L9vDm0Sr/LrNYU0f5jBeHIinTF48hmt5H7aHuBARGoFDtoN4W3z0CtszvlrsmNB/uOUkLHaPzr127lE=
  0
TEXT
  8
0
  6
CONTINUOUS
 10
0.000000
 20
-17.750000
 40
0.200000
  1
$PLWDWGfTZm06hmA9INzbRqESk4SGJf2niDE2c2zWWJFteDGM22W6ByNlVT0drQtvbe/mjTFQXusJMIWRTx3jBSpvRtKD9gFvLbWaQRAOubWpycQ1LVAi8ru2bZCprRA4kW3dRZH97Tv7ooDSiM8wgWvQfptgInimTYP5+suDrRq9YtOiI=
  0
TEXT
  8
0
  6
CONTINUOUS
 10
0.000000
 20
-18.000000
 40
0.200000
  1
$PLWDWG68lkqvd1aYnVAz/b56YmflnLzSI3Xf5z/uSfJLKR/WMaL3om+E5LHwABdnu/PBM0pMoJPVrGZgpD/mkgPDxBQNC4Myv8OS83ry/aBvJ6QUB8NY1tmr3Q4PKyd8To4z4nlrE7JRT9Lj0Q0+1R35PXb+t1WwLlAZr/BVC+fF6kXYI=
  0
TEXT
  8
0
  6
CONTINUOUS
 10
0.000000
 20
-18.250000
 40
0.200000
  1
$PLWDWGCVknEsgmGB8JMAtBz8kjJ3V0L4WvuS5cOwQBIwz6OS+x1pVXvraeEvwbpiYb7Z8m6UiFAXjeE59YWKDp/gRC2bTqgQ6E8KWgCnRwhi+ag97gAzPTbeD9fyYFEAEs5e804AiIQVvYFv5Y4kedabz/VohfBeHVpyl8KU4I2AjjJbs=
  0
TEXT
  8
0
  6
CONTINUOUS
 10
0.000000
 20
-18.500000
 40
0.200000
  1
$PLWDWGQ5EDXqEYJnJ2QGSSvx+x8Ih8f+0wICuWPTfyepYBxEup5XqlW7bfnz42SbVBRr7vkvbXVw/5Dtp75OefuE9k2ImhTLK9aOVDvSHCjGbhpMmmHe3mf5Ygk/A4Pa+ZenyJcjeTesPKTnK16tg/rZCCj2S9L1LX8h1NntErSrRISow=
  0
TEXT
  8
0
  6
CONTINUOUS
 10
0.000000
 20
-18.750000
 40
0.200000
  1
$PLWDWGbsra38ZrzKWwlLaQ1N1SjeonVNJCVxKdZ8XpHO2Yrja85vVpG1b04oQrxt0NeYneOntR/EY5SaR2J+0vKx+x0fyEeLRy7y1Af+hVfK5anjL0DKjH7uHawXoo+O6crf8lncGUPwmK8M9vtgiCDzrONr49Ljkl6F2dORMebVdu0Uw=
  0
TEXT
  8
0
  6
CONTINUOUS
 10
0.000000
 20
-19.000000
 40
0.200000
  1
$PLWDWGntLGcsd7S4f4EkExyQfWS3Sd7GkItFaL4mgZsB6CHraMbMIYv1x7SBKUjka9AdVdlgjAv4tP9ey1Czrcu0HCTMXevJ8UaG63xP10sBiJrXKGrWAQePbCI1zbJy0GC3LFnqraRX3UyYUTtGlg6URgCOue4cmhsk1HiLMeY7sLXuk=
  0
TEXT
  8
0
  6
CONTINUOUS
 10
0.000000
 20
-19.250000
 40
0.200000
  1
$PLWDWGQXaBX7VwwjTZbiBtaosWHVjkcEA2++pQWWIsIUjF3NtLQSMIx5Of2it2nX+a8p61myNOMIAi91DkouT4ewPaAnoTJlnWlIinLjY0HLbWqjHEJ7s9ArXjRIS47uyjISBpNr4oGRVgEq2OCgkeHDUYFZRvghlXYncpEMwdz0h/Iq0=
  0
TEXT
  8
0
  6
CONTINUOUS
 10
0.000000
 20
-19.500000
 40
0.200000
  1
$PLWDWGx1L2hJzBqtlOgBzMA8YysxW4NPioyiKAyFi8Ms/AfegbRq7Lv7b9XcJMjZKISMGmbNyeQQ98qQMgHSwXFDLi76vlV5DInZBLtyi3cw/3TPHBTILlbi9z4h8jgrz+t9iR5Mbtggv+TZs2ouRkTh1to1kuhlSXPGpiDfqMk8d9gkk=
  0
TEXT
  8
0
  6
CONTINUOUS
 10
0.000000
 20
-19.750000
 40
0.200000
  1
$PLWDWGlauAJOgsUZrTVSYTDS34UC0r2wWTt8QW5eeFhxMmxEQ0zrP+FPo0ycIsG74hsIXmL6PpJ0VTa77p27sgloGP+WxBo+QIPopT6SACmxVR9Y7LJazi3QkISY1fIX/Nr/5VeTj7ZlqMFD0gmQKz2O9hWPfIZ9T8pFhczHw40welWvc=
  0
TEXT
  8
0
  6
CONTINUOUS
 10
0.000000
 20
-20.000000
 40
0.200000
  1
$PLWDWGtKQmopDgVw0O6e0+oMmpj1hVsm1ZpPWwEzcn8uUH5XqebAqg+0key7eRKPjPVpBjAI8lDi7H9sSQbcaTHczmvFGcF74ltG6/rLzD3SdPFsF08Ti+dX/yU37mcBmtpt++eWJuTaHDDF2OuY30CHkOz9sO0k8pOgbu8mUUiJ7qJEs=
  0
TEXT
  8
0
  6
CONTINUOUS
 10
0.000000
 20
-20.250000
 40
0.200000
  1
$PLWDWGDUyl3np8WBSYSGYXc1yR1H2qtCoXcpYClehBkl9Uonn751mAlo3zO/Hm1TtVGkgw/3DAXsdqC6qRJ4xF9egSU5/nOEgYx1HGtWQa372stqbzsFIRoEdvspTOupCgKmBKx8PzYwR/FSqc/KZhqtfMj5ebMRZlNG3yEjKm6P7Ot8A=
  0
TEXT
  8
0
  6
CONTINUOUS
 10
0.000000
 20
-20.500000
 40
0.200000
  1
$PLWDWGP6CvatqDSI3s0Kd3HIy2o9NPZD+4VQgB8oxdfB18wAltpbexs9l1Cu1aas6KKtRfb9qv7lWf9CSqSQSYuyDMjeUfdHHRDsRPF/YJ1pfJbjM6HBXKNc+VuSzD9YDfiO2+IDUpQJYhQ63cRWiggUnZmYQorDS/6JvOKa2TUDNTGTE=
  0
TEXT
  8
0
  6
CONTINUOUS
 10
0.000000
 20
-20.750000
 40
0.200000
  1
$PLWDWGaaQZYbn+ULoA/O3txOMOKoeipS3iLdMNaL98s6JIAbmokeVTzmhIL1IU5mvuw5ZPIUfaSAHcsPQSx/IKrkNeJqfwlFllocRKhOniybOFV5VbOilFUv08M90ShUW40CKg3OJcyhWdyj6MULrhv+wLfwtTuCGzXOFR3VktIuiNGLo=
  0
TEXT
  8
0
  6
CONTINUOUS
 10
0.000000
 20
-21.000000
 40
0.200000
  1
$PLWDWG15hZhqtq5bGQ2C6hUiDSBKHuGjErd2OSgFLVs7Yd+8yXs4OgNx+XjFdWGdMqUhcdHzPcgzpoJjpZkDS/4DIAhhbdHor6rCMA7Ay8djuuVJbU3aQvoxho5lX8+K7wLhZwVfSMYgUeeUMTbWwIxP3wup/TDcyoWqKLzewDVhGnRLw=
  0
TEXT
  8
0
  6
CONTINUOUS
 10
0.000000
 20
-21.250000
 40
0.200000
  1
$PLWDWGiX6cfCuiVJhTAS15KWIPeMHS4eDOBv15xRgXQ7zMHZpVH8KCxn8T1c6M4lfGArzPINy0CX9kmI1GBDP9Vl2r9g+ZgXRhmuJ5I/jExkUKtSxQbys+7qnkFmdmZwXALTyIeZ1+guVt09cGFZluy+jO80nrsvRUIF8KE8DP2v8Dzpg=
  0
TEXT
  8
0
  6
CONTINUOUS
 10
0.000000
 20
-21.500000
 40
0.200000
  1
$PLWDWGMoOJ3kqmgv1KVxRx6YRYb2V85ggW518/UDpaAcQkqeMWt6dJCyV0wD27DCiC6xwLczqrqXJ5dPIOrbcMEOJKiaJg2ZQaxJyG1P5rKDzhy24iTKxSNvGJoKRkVxO+ZK0DGzopuQk58sW+Df9FeCJVh1DVYtgoopkuaKvWZZ6kWpY=
  0
TEXT
  8
0
  6
CONTINUOUS
 10
0.000000
 20
-21.750000
 40
0.200000
  1
$PLWDWGWuBFuvJCd6TI1DfrGfp96sE3BrwCP0WFSpu0UOgT/OgCdjcJMUdLsP8xBC8P0WwmYETuYiIewo+/ieU5xA8rFwOlHFzXIasZuaQf/ip9ma7G6tCwKjgfngZJEIKBJE0fl10eCio5zL0uYmlN3bGlpGKLYJTJRftzqxCy52+W4e8=
  0
TEXT
  8
0
  6
CONTINUOUS
 10
0.000000
 20
-22.000000
 40
0.200000
  1
$PLWDWGysmveYgB0JvLa3loI7IdxhTDOMdjYxq7ktkuicCBGfQhtTKNIw/xgdAvp/z3qwmAr5Lf1sV8s1VehwVRFa6Ucpm1JgIbkwyFH2VuQtGQ3hOEKht553x9e26evAWRauu10f/T3akqRCJp1ShIDSWUhtiA4/H0sxXf7sMjmWZwrTM=
  0
TEXT
  8
0
  6
CONTINUOUS
 10
0.000000
 20
-22.250000
 40
0.200000
  1
$PLWDWGMaqt3RdSimIVjWfdtYtGCMxLS3a1S/PxcBkH94CdSswPoPdXS9Wz5TBsDGhru/mrLKLQaocqrwAsh2e3/ijLd/ngbUuPCJXKqq4eoHLCnXwcpfpfEH9CxwwqIA2A2sCcNHpH5uQhihe7AYRnde0Oc3olpGvT4ae+6C89URFvHew=
  0
TEXT
  8
0
  6
CONTINUOUS
 10
0.000000
 20
-22.500000
 40
0.200000
  1
$PLWDWGGdT1s1sYLC5e2377VKbWLnUDsLrr8e/2CVTVk4FXp2Tlx0yZVlagoXYvAO4Yma3vHmetRw0RRNTPUHTMTqgTzLiNUjE0QJanGzXNcqURWIpuGxLQLbZpTytErggwvtIheSk3Dtre7sKle0IB6QjY3UKsObbuHG//W4BBKHyM/2g=
  0
TEXT
  8
0
  6
CONTINUOUS
 10
0.000000
 20
-22.750000
 40
0.200000
  1
$PLWDWG8w8BKhAzR4kgtOQ6BoGkX0R5UujvIrYJ5Y3nQoAXKyMOmrRiqzDsnfEkRSVCKWW41xOdvK2HsIOBu6zTOzQEdITcv42CfTn7K+S0HYfLeNiTP+yODxCRbjNPRecYNf13GJyTVCa/dJOLyqmcg6kIqYKKkaztCIbvFhpKTctfhLM=
  0
TEXT
  8
0
  6
CONTINUOUS
 10
0.000000
 20
-23.000000
 40
0.200000
  1
$PLWDWGFMboD8naTf1zOp9vjGBMxa30WgusjmvW6lJrsELutxk0CIzy4ey5Kwv+y+8GMYHflP1A0wK2fMWFm8jEhoA55X+H8hAHjEg/Jgr4UHPc94Z/p8qXZt2RfoabtmooOMwt+OICXmMZpcX0Qfv9bYvvI3OxbbMv/fS4yQiSUQKrWBg=
  0
TEXT
  8
0
  6
CONTINUOUS
 10
0.000000
 20
-23.250000
 40
0.200000
  1
$PLWDWGjzfGY2oPTi30FXbFP9m/xpY7D1Jcm8ITVRTPZ2hvbPY4Z96iUbCi59FEnC9POHAmIrAIEAz4nyT+WFc1yqAftJ4Ao+Bc4cqtbn7J7u1IpnSKcDaaP3+Sl5j6t7dFw/jSiCXWVGwtKgcf4HeR3jv3rY3KAXsYlnlBvab/eAhXKRw=
  0
TEXT
  8
0
  6
CONTINUOUS
 10
0.000000
 20
-23.500000
 40
0.200000
  1
$PLWDWGIFlPNJ5TSGmciB+s6l3r4P43U0y6astCkaKsjJUePooNQD2QIgyvDeqJIILWknrmSbeyrqs6P33MgxKiXoDtPFa15Ewlehvo6L7LEgHRFOEkk3bGxgJUR8ff25YviT4YuO0k2dkK51/0TT2VlnEVSicLtInvFWyY0ZmW6qb4zmE=
  0
TEXT
  8
0
  6
CONTINUOUS
 10
0.000000
 20
-23.750000
 40
0.200000
  1
$PLWDWGfNpT6Y2d9hqTKnynfFU/0dGubDTAuHJIqbvgHVw+XRr0XXdcJSlnDohKoOOmcwrXKpvKehw5Mcriq5ZnSQW7slDvwCTB1D2FKW56aSpsuic8OWUD0xFHi+Jod4sLdN1SJ7MMHkhR4P/wRoOcVyMA4KaOzvVcTxBeRQSJnTMNIL8=
  0
TEXT
  8
0
  6
CONTINUOUS
 10
0.000000
 20
-24.000000
 40
0.200000
  1
$PLWDWGl1zBw/dOJWNlFZG2aSw7qn5sTlSXoPgyVsVogG6bfASu7a5MJhaWs+J/k7i2Z/n7fXMcPuxhm4YZ+tYW+WwC2vlLJovoSVh0UiIKvJuLySzSkKSaZXeaKEfl61yABSX2sqyYI4o/emSrMVDvzDx5pHJYSWmACKnLn2J5Yu115as=
  0
TEXT
  8
0
  6
CONTINUOUS
 10
0.000000
 20
-24.250000
 40
0.200000
  1
$PLWDWGw69C/wUuTQFoghQbrcOYaiJNXDmWJBon7/SRGnNqvuWDg6Z+eVaPm1g6cK6/NJZ9LJiWLRwPbAm06OTSYrJ5zYBhSK7eD91QWo2heQRl6+6qxTEyZ+gh6C3+GOKA7kcaMmMBwH3HBL1C1Fx58OCXpBkRNYpg1uDcpDVQyzlFFaE=
  0
TEXT
  8
0
  6
CONTINUOUS
 10
0.000000
 20
-24.500000
 40
0.200000
  1
$PLWDWG5+AMdWoPPcIBRXkEQl6XsV+9RGzh11a15Q2RxMiJYolDt72S+7CxJ3rTCj/ocKJLt5dBuPwuKBnOY3qOrvTrZ/Ya6vOMsvLYa2Df0RpbxkbqlDcU1PBhrm9N+gFGtno/ot1SoCZl7p8fVly3Zzf3QF4OLKX6a6R6gxb/IYZDeGs=
  0
TEXT
  8
0
  6
CONTINUOUS
 10
0.000000
 20
-24.750000
 40
0.200000
  1
$PLWDWGFVoK2sWOWz041QjxtevNF2BAwdZwQVpfwPe4yGxyRX36k53jN54RJuYYiVngPMANcw36tOSmaDBPXmvNUoQj9SPbNiBpma7EEIJDmEu8KNJ7yT9dmbFBCIBm0i2D6aEkGZI7S00TM2ui31RM6t+yiqMlSaGAIOmeFMkMDQ2LBvY=
  0
TEXT
  8
0
  6
CONTINUOUS
 10
0.000000
 20
-25.000000
 40
0.200000
  1
$PLWDWG99EIjfT4h8Bh/A38lFIaPIVsgVg2tLC/w9duSXd2GG+IdhZooUxUV6SJ5gWQyjG2jBfcHYKxUNPRlS7h53J8uPhhcQL+nIgPQHMcS/kx3jqsMIrXE+bS5jfkluDaEHp1n2XOhcbcQPn6BZVlO0YVFNfkJ5otMYJQUHCAJPunzNU=
  0
TEXT
  8
0
  6
CONTINUOUS
 10
0.000000
 20
-25.250000
 40
0.200000
  1
$PLWDWGCMqFsqi4vW+ERi6bzvKJ0Dc5aal5urILnrrFwJexsPoCyZC6Tj8M+PDuQLhK+/CNsKoovdHfM1knYztmmkUlAfyUAO4KAJVV16/FSGlgSYDKvJE4fItIbFRiWq6TZc+P+F+xLd7u0hKAAhXBOQB+QkY7Z3rbxuZz7RJwilLosOs=
  0
TEXT
  8
0
  6
CONTINUOUS
 10
0.000000
 20
-25.500000
 40
0.200000
  1
$PLWDWGFgZo0+JvVVkkcE2wTi/XglGnsWrHMsr45jPkJ3wgguzR4njSW637hCwKgDvMt2UpFthg9BUa54uysjg7NQWNfxn8EKIx0ZnPdkCwDHh/2RU5lLKLKepLyDzlo5firGj/Ren0hhTU+vixVyZZpXU5nRZkArm++JuDeU/0nYXjCvY=
  0
TEXT
  8
0
  6
CONTINUOUS
 10
0.000000
 20
-25.750000
 40
0.200000
  1
$PLWDWGgUJfLsAPefcbbUCW1TCl1jaTGB8G8rJazdF2FMfLhRLWus6dopQuJpO8ETJb5EB3HB+987eUFPuKlLhSBrmEsUGfyT+zbYWlGtDDLUGhOH813Qmd3uG46ZxPLYAJgXB1Y/h9tceiGuNltP8sZolXDGomPvSRkG0hnU2O82xyzYE=
  0
TEXT
  8
0
  6
CONTINUOUS
 10
0.000000
 20
-26.000000
 40
0.200000
  1
$PLWDWG5428q9CDWeLRrtIAsl0mLfB+C2SX7Ga3PUUoYmReEzZNqLSOmqwqFtiaCCQ4tvD3FReODtqZw61hq/GWTIF3xd5er8AqH2AYhBJ1BNQiLw5F/e6RI87upO/9xFvgYLod3QQ3pv0mbQ7Jvl6fA18FmHkVwpas/ljlbEFsKuPgvCI=
  0
TEXT
  8
0
  6
CONTINUOUS
 10
0.000000
 20
-26.250000
 40
0.200000
  1
$PLWDWGI1SidMW+rr88dXAbF54UVVufQwstHIxzRC57eWI2rPvI6pf6sSPChXjkay4T6WFVYEayaGEwq2kjDqGaQc+l/x3rDw+8LzB/aimB6ZNYqaY+02+WtgVPaccoHUs0844wPwAHhhCXWouAC2fOgAL3z0vdOyKpjK/3k4vPriqCQ1U=
  0
TEXT
  8
0
  6
CONTINUOUS
 10
0.000000
 20
-26.500000
 40
0.200000
  1
$PLWDWG/FsxGRSeMAXxVHthomYEU5i8K/z+9COwP0Hb7Y6yex4OsvAZd/0kEF20/yPPrUIDK5HMVAPZJ3Q5tax6+m1WUl0FTXzxwMA7ts4gN8r4P02b5zeF/SuvYmaSEcvYSSKS2ewj/UOSoY/530M2nMMQ3OYWOyvC/3x91UrXJ8QXNzU=
  0
TEXT
  8
0
  6
CONTINUOUS
 10
0.000000
 20
-26.750000
 40
0.200000
  1
$PLWDWGfYISiVquHmNNo5JPZ1QYc4QZlteE6eWQjRglPZdNgIP4xB4rQsqLrZnr9Vq+22fjmSVa0zQjExOu3re1WwnruzEq31n2qOoffO8vDmKImFHp9mdpEZxo0M+k/SldvGHverYISbDw60eqMeOBPV7za6WZU7WHd9XAV7efrTAO3jY=
  0
TEXT
  8
0
  6
CONTINUOUS
 10
0.000000
 20
-27.000000
 40
0.200000
  1
$PLWDWGA/XmDsgI9zBGc/HOrjelDzkwNe0p7bGmyAW9XLrGAzPM60w5/8zstF/XNlljEHxezMYa0wqtmYol/6jbb1MvljVdbQu6jVZrTAMUkJtdg7Ebl3SaQZEQpFYGKNmykEpAvhKgtTPnG0Iy6XqIsP0Accga0LU2YgF+siIuDwyFJXc=
  0
TEXT
  8
0
  6
CONTINUOUS
 10
0.000000
 20
-27.250000
 40
0.200000
  1
$PLWDWGc20xdZZLAyjbs6r3F70CzdtBwE+pudE2urAdNNXvOfc463mKuGFy6rN8CWfwNiV/30QghFD6QyrtxOEvXaB+fpKs3C3U0XI825B/Mpl9r8p/AlWAXRWQjrOHYtbDfiZQkJd7Ai0Os6XURLIFgPzCuDk/x/1AV1VwIL0IaQou4YY=
  0
TEXT
  8
0
  6
CONTINUOUS
 10
0.000000
 20
-27.500000
 40
0.200000
  1
$PLWDWGcRxty7gT+aIGNpuEs2VnCITQxt9aU6Y19acjKtYj7KE5XG34gcjfEx46IEl81lK+ZpUirVlj/ZPuhA8MvrvEvmrcQxBMdf552vSG5EaxzVVZ/QqwJh4A6NR1B6F9wVfxvC0YlcF1ECoAye4x/7N9YCkFj4meE3oC1r0huvWbrZA=
  0
TEXT
  8
0
  6
CONTINUOUS
 10
0.000000
 20
-27.750000
 40
0.200000
  1
$PLWDWGL4Cs3C768AIPdObh0gc2YnF2lXgttN0xPI4UIhJTWCdyQR9rIdsNN6v12zhuHkPqjaZi6UUVww84J89kgfQsx8GNGK3QrebUCyNN2qWHDDckRJt+olHzlYsdKHLiIPNQRnTYNfMP2p7HXqjFqhphgaK9RPlpb2gMYG+diG13LMs=
  0
TEXT
  8
0
  6
CONTINUOUS
 10
0.000000
 20
-28.000000
 40
0.200000
  1
$PLWDWGfTFMlFVOWkusHS9Q0l/AIR7NZ+R8pdwjasqHa95a+fRgiCQJeLJUhRX94/g2gPK8UQ+usYdgHRbKflA90WeRj/5ZIF/ZdPaCcs03TDYcaJx3/JJQRofbCRv1EI0+b0JASZRbuJOGALQwa9CU+E9CQPUltsojRiVpngaz9j7258A=
  0
TEXT
  8
0
  6
CONTINUOUS
 10
0.000000
 20
-28.250000
 40
0.200000
  1
$PLWDWG7Juv8TZZjx7o7xbi+fJY3k5tSIng4UGro5mtD6jhf2uqlsyPEc0wvxv+47smuiUjni6bJ5q50J+CIMB4x/XfYsKFz3jwmRmbEbj+y8GvguSfdNh2/ceUEAXIpweBnS6KLA122qWQ4PCJhn5rJArxHWh7eYVPK1hXlNanXeUUSNs=
  0
TEXT
  8
0
  6
CONTINUOUS
 10
0.000000
 20
-28.500000
 40
0.200000
  1
$PLWDWGWAtdMINOzvFqGbF8rsYwj5QaQ0COzXy9KBT6VKN8LRGBgRmwkmqu7mVMHYb3Ke2tIsPuDR/74VlbrtcUL5JGP9OSiwSM616X7HdhEBOhhyBUfkPQ4W10l/fcq9BJRqDQ5RDQJie2ilvgnpcfwOyHKQn5/CDmeiAHrfkdeZCbUIk=
  0
TEXT
  8
0
  6
CONTINUOUS
 10
0.000000
 20
-28.750000
 40
0.200000
  1
$PLWDWG4E20y8jEN7hj3INtalq6RL8rK/fPymE7nrKbPsrPLk7157zLHRHA6qjQxCDIjMI0JDBMBWAVhF0aE3Cz4PGS/mfIqqO/2HvVAj0nwh323Vy/JBWk/cjCkFY4I4GJNVmHiFejOB2sRvVITzghxyf3dgiB5XPLEMQSzLMonY1RQks=
  0
TEXT
  8
0
  6
CONTINUOUS
 10
0.000000
 20
-29.000000
 40
0.200000
  1
$PLWDWGRD5zYhXrp6hTin5dYwKPZDzc/ArYzq4FUKbE2KjV5+2Eu8pRZaVOMFJ/AIKWfGxsPbC0fKl5RQvTk1zFrrZyXUyApsrEerZ7RoFGXfWd1YlKniRax2haaC6HMEcfKXchviH30XoY1jq+TOTSqjENUDqVWSoV5XMAy0umaxytYVw=
  0
TEXT
  8
0
  6
CONTINUOUS
 10
0.000000
 20
-29.250000
 40
0.200000
  1
$PLWDWGwIZ7CbKKQS4Aw5ZxeUpXA2piKd7eifzk7xBxPhH6AxywUrQR50iPR8nSNkWHN7TIaJIQqaqdP7s9tyIe33L190YC7286vGcvkGFyOW5D8edBaFM9jQjQ6Yv8DUgjpfyKX5Fwc+R8N3KQWeN/Emn0gmz/P9/r9rs7NggYGHIkfqo=
  0
TEXT
  8
0
  6
CONTINUOUS
 10
0.000000
 20
-29.500000
 40
0.200000
  1
$PLWDWGcxtVPrMFVnJJOUIa/2driSMw1V8LIpH5v3gEnv4MUzdHbBDQFf2bUJq169Li/+cvWUlVxKTVeUC034n3GEnnNqQxQxBWc5v4LhRvfBTYtqhj2aslgr0k/AijXVHYwYz/KH2fhziayQlTnjO5tik5JVJaJ+K1aawuUUXwkWqs5Wk=
  0
TEXT
  8
0
  6
CONTINUOUS
 10
0.000000
 20
-29.750000
 40
0.200000
  1
$PLWDWGRtld8O+x+DkPzxYMYkoZRp4LlKkKTmPccuejQXy0ymla6dviptQolfpX46eHSeS3Dm/ayyQa5ArOGtgp8Hj7P70SAGTvKuQq+oYGJovqVr98ar3QhwjU8rh6t9HzpxC3eGaiPixN6jERmihRKg0bQcdDVy/o64FCCn9I9Ix7mK0=
  0
TEXT
  8
0
  6
CONTINUOUS
 10
0.000000
 20
-30.000000
 40
0.200000
  1
$PLWDWGpFPbKiy2DiNKkR0wfzj+rHr6Fw4qmMZ8x1e/tt4/IqSbuImi711u5/qgUgFewD7/rBUqvAyONj9HgtHXhDWKTQQuFX7EEaFbHixFP/+R8BGKcSnrXI5+mlH8Yag4KoN0BYxjk3zqP66549UBiuGI8axUoVXQUF+90KwXQ+K0OkA=
  0
TEXT
  8
0
  6
CONTINUOUS
 10
0.000000
 20
-30.250000
 40
0.200000
  1
$PLWDWGH/1tB95M6IelynEiNpdZck1lrPnaMu+fUqTEV7M2H+FyGGSXPTyNIUL+lXGsJnIl7Ca23m+k72GHRtmNYmKzNjsrknjFj4K6grm5jcQ8FocMylIjkUmwaGtePwRXhv4ljdTvOyu5gfkexF5gbVN7GIiDO+zUuxkYcBhLGbuI/bc=
  0
TEXT
  8
0
  6
CONTINUOUS
 10
0.000000
 20
-30.500000
 40
0.200000
  1
$PLWDWG/pseS7V0N/wqhoEHNgpZvSBG7vq8GERCe76GKEBzwS2w5hZCuHyFwRJKliNMXrNqDVTklWDz6sZvGc1RTblh68MNFqM+M0EWrWRtyuuZZ2BSpJ7ByuTlMxe88XJJeaih51mkVzkgx2/SwNJrIQL4GeXIWxYByIiybqZw9oRZxKE=
  0
TEXT
  8
0
  6
CONTINUOUS
 10
0.000000
 20
-30.750000
 40
0.200000
  1
$PLWDWGigJvPi4yCyG1Qdav+cJc4th80p5gUj+srFkAoUMyDmHCBjo8QaeeIuglR9dqK81xNk0IED70GUUoSiDppZTTl+B8y5T64QhxQu7+4nCakBFUB7l2To1CKn9NBbxQ5sMIIzI4V8Dxy/RPJqxUZTSyumTRkxdjpIEh2P1mlnykvRc=
  0
TEXT
  8
0
  6
CONTINUOUS
 10
0.000000
 20
-31.000000
 40
0.200000
  1
$PLWDWG8vuC059aABFHfUFUNJfCFDS888a7dy3VWhTEPOK+l8VDvbs6nbZqeXnChyn8DtypVehzQWhqTQcgI6RcE1FnnL0GmL/0NVQZIantxHpQW/hQpWDKlZjyO3bK/pXgUmhzKOmdyxYwLAHXt4YgY+QhrNCzvjvFeJWmdoX45owgqik=
  0
TEXT
  8
0
  6
CONTINUOUS
 10
0.000000
 20
-31.250000
 40
0.200000
  1
$PLWDWG+AwbqeEn1WL/TiDBbmcjQ1ccADjyGiBgqBWJPWfQpj3WTed9dZcn7yXWqpHGR7copQM8P40fCTvktNJLLb7IlvGQ4Jy/C9JolQMc24u+qx/xIMee43xkbXvaAUqFL3u373CLX491vCx7xYDntrknFoFiUdp6/rVqpbDip29xb3g=
  0
TEXT
  8
0
  6
CONTINUOUS
 10
0.000000
 20
-31.500000
 40
0.200000
  1
$PLWDWG5KfYz/3Oi6kjlrKsCYb1HcopjnoopcGNQkvwMXh5xazxwAeu7Gv6RFEdSo9gixDYQ3tAKyyS2YlA89G4MM849X9XkW6JSSDuTCh3T8YApUFuO/KbR5EPikz7E2sWOyBJIDPoa0MNn9Jic/fsRxVApUA5Cug893MKJsmiEuQlHVU=
  0
TEXT
  8
0
  6
CONTINUOUS
 10
0.000000
 20
-31.750000
 40
0.200000
  1
$PLWDWGsyThvfEV85rdAWzMXNuiyxLgI8YbgQGf7HWZ/Wu8TWIyF5Upg5hW0FX6OWWdCOJBR7P6CCzPaKDV1G5c5AqB+PN95Ty6gacQniWsKtW0zVSu4mKtr5k7Af9u7W1JOaEIZ+aiTgdaLhfMZUmayL2LHXUoLedZYo5QGtZWUdvJoLQ=
  0
TEXT
  8
0
  6
CONTINUOUS
 10
0.000000
 20
-32.000000
 40
0.200000
  1
$PLWDWGSQ9Jq2sT3zyZI0nkDA31J5gU6u2aPdV9mqYPeruGWlL2HRhC/dvf5iP9G97Ub/KYzjGEXsOPIapaQxloY4W+RMZTQYcsN5awS7oHRnMmvRbsAJm9QLtqcsRJjw6knaTeo0uz5HclmZVsdID7tenWlWFBjqVt0UocrKjZBfsTqbA=
  0
TEXT
  8
0
  6
CONTINUOUS
 10
0.000000
 20
-32.250000
 40
0.200000
  1
$PLWDWGqSFks5Stipv6dmAKbFcT3ruyQfjgiz/gonwAjZpjwGyJkVBuMVJKb7ss3h+TFgu5h8pDT0WjpF3mUI1bj8Arr4dEgGqjZqT82ld5e1BuGNKNWDPd3BJoL0aUwHEfq/WVOROY/Za47bcpkItACjC6k7w+eRRiAwT6PV+tUpvn5Ms=
  0
TEXT
  8
0
  6
CONTINUOUS
 10
0.000000
 20
-32.500000
 40
0.200000
  1
$PLWDWGpm+peRbefow0bd0FhciT1R6XOpiJMygqwsht+acbyKSOZze2It0BxiSzZ0/IIqyRwp9/nwjIGC8J/z5YU+PjzF4HA8llRM7+POXuFcffiI5BusuuSk6vczvXrMN13MuSvUJl1YMjXAxxGarSZebaQczHiB0f4yYqSGCTwDoB4Zs=
  0
TEXT
  8
0
  6
CONTINUOUS
 10
0.000000
 20
-32.750000
 40
0.200000
  1
$PLWDWGNhzHkTEH3GR3qedw0EOyt91pGMxfHFPwmW/ic8yz6b0pHmJnU0vRDWtFXYGWJnTRnCzP6VfCOwj55PZ8WNS3GWEVCaTKbNHmWRdxr4CVI4NDwm+xeHKNwKJy95fou0kvFsm9ZNb8eqGtERcDXblXG4GQ2qsGqtbjkBeycGvHqVc=
  0
TEXT
  8
0
  6
CONTINUOUS
 10
0.000000
 20
-33.000000
 40
0.200000
  1
$PLWDWGdtb2U7KKlVFeft1P/31WxVOplb87PWp9YIWV9Jn+91A91Mrm5rISonyDh5y/UkZsjYeiK5yM/IuRDxWk2l3q08nvhkDd72HGtJ9SpTFZmA34+2u7e/wfjgAWLUTK529oCP4WrRHlFdBbYfNp2AGTw69SwL+4NWcYHRUgkvICYLc=
  0
TEXT
  8
0
  6
CONTINUOUS
 10
0.000000
 20
-33.250000
 40
0.200000
  1
$PLWDWGTLQ7xL8bLSSz7nR8ihxMrijq4ZhALMK8UPwXWxg9eF2IXT9OhhOXfdIQxXlkFWgq/agQ0i29dgoOWCMUNpAU5WPp7oMXJ46aTqfnASRujSCn7c3DVOFFeOj5u2hdXukd7YfyzT509jd6T9qaCugMmfaf7VM3sXmokIyf3w9Bj0E=
  0
TEXT
  8
0
  6
CONTINUOUS
 10
0.000000
 20
-33.500000
 40
0.200000
  1
$PLWDWGcNm/oNkozZxQ33q4yNftgYWVGwxdCN+RMz1loNMDZ+KTdbosBMJCP5NOQ7dDhCPyL6CStH4AjQOXk+FGurO3uCOAfXDsrulvN+DlQy7iy8DVkDV+henvVSqaIM6BNHXeEb+TwZHtK3mCsC7cHnr/XGdq/YIpS/+xXogZd8/jEC8=
  0
TEXT
  8
0
  6
CONTINUOUS
 10
0.000000
 20
-33.750000
 40
0.200000
  1
$PLWDWGds6hZwZi96OomPkZe8WhbqssOysNPaCcW0MRMTOACn+0I82vUIkrrZnc0pWZEbEXmkumASUkDw9cjsEc3lBKmCbPr9moe9RNmksgg3X7ldJEJn4YYMzs181AV8dVbt32UuS/5Qt9PFC96N2B+kyhc0URRDHqAwerEMEuj4lSCSs=
  0
TEXT
  8
0
  6
CONTINUOUS
 10
0.000000
 20
-34.000000
 40
0.200000
  1
$PLWDWGGa14njhiR4CPGuMpW+GcNUpJw32I5AoNdt8yIi8C8ynVxBdHd2pTWJh/gmRVB2NiIMTwqbzFV0Kr61bab3BQoaunKwtrPzPqyFMzou+BMiX/i3iDRr64om8i9GkI++Ajb95pi52LZfddcoccD13H6b5NN2MWKMJxG4ViY3ji770=
  0
TEXT
  8
0
  6
CONTINUOUS
 10
0.000000
 20
-34.250000
 40
0.200000
  1
$PLWDWGwawhVQFIZ5hXxM0qmvwM3kBqUZ8IwYyCUW+loQrsFomGwoDMkWPrAN+pLEN6PUoCz9kIT/HDgfxQxTtBkvNEdzsqIppOf572iZKuQLlsMS0LI2aT/jxw0dnJVZDyBEu/pvHlSV2prjUI8uuVjkdeUkG4fu+x0JsF89kg7jRo6RY=
  0
TEXT
  8
0
  6
CONTINUOUS
 10
0.000000
 20
-34.500000
 40
0.200000
  1
$PLWDWGjYIXzNPiW6fcJ41KwjzrDmgY+oLaxLsoYbi19+JldXQWH8NWUoKtgwMuiI0a3O919iATT9fHcI6d5eLlm8SPrLeCq8Z8HvtwyTSSEmArnaKp0lrASkZhrNjF7QqbiQBs+o17oFR0AClNEJOQaCanSlnRkjz24J7JD2okP+fEQFc=
  0
TEXT
  8
0
  6
CONTINUOUS
 10
0.000000
 20
-34.750000
 40
0.200000
  1
$PLWDWG7W8+k1sPLyH0lhbElNM+ZcDDFeizTf3PuTmiJFfIdDbgfjsKiboP05VZxCyynKJQRHNbMpoEe2E4rDyLPhcNbKm+6M1jYVhhguQJrJitie1z2Y8crTojjuvBGUBdERUlQVp/uxRBddyVL03/Q9oYikM/l3sMO9kKBjDXni1+a0k=
  0
TEXT
  8
0
  6
CONTINUOUS
 10
0.000000
 20
-35.000000
 40
0.200000
  1
$PLWDWGagiMldaL52Du0aDndiT41EF6szPLgx45VB7OC0bL79L2LTC/zk8hbkrTJ57uNBPxxJh4nY+FBb0Tw8faxXQdwNqHUnitj7YmmwD5oP6baN7e9kDsaJwSwJP1Faz/J90g8pRvoJRnGGSrEmJAv6g3PtLkSFP9xIvAWeDDZ7RxEg0=
  0
TEXT
  8
0
  6
CONTINUOUS
 10
0.000000
 20
-35.250000
 40
0.200000
  1
$PLWDWGPvEvAJdhgj1SHtXw/zHAWqsfSumM+8dQFs507fRzeO/1diQ2tLiWdigvW4KDvBdNEuwFa7uSaoCkxE9r2EtPE3MWSXb+Zwd8yqCAnB1NLBTPC/UtW5vBb1W1j0vWaxN3FtqIuOjTRHZUt/l8GOb6guFKeATgssmKb+b58ydYq4M=
  0
TEXT
  8
0
  6
CONTINUOUS
 10
0.000000
 20
-35.500000
 40
0.200000
  1
$PLWDWGsOpzOQ3ud0M8Jsnj/VPkbXGSJKAcf0/UvLIMjWxYCPqLVux8OlspVsqCTO+4HhbQdStGxBQdhP/AST1jiN8XBqeC6zal00bf7OC4bBoWyckFV7/kRgK0cXaM16uQe0d/7hzUef2FvOpThN9thMJNR/A20cKcDqkkBW5tgr4u7a4=
  0
TEXT
  8
0
  6
CONTINUOUS
 10
0.000000
 20
-35.750000
 40
0.200000
  1
$PLWDWGrZM2Ot5Es9nl5BQGkuYQpLW8eNaFHg1ppo9G2SGtwHV7ma0BCUTA3WvpEbcAN4tQlfof/kTImOJB2kRm/9zJnaCW/DS82voHTjVxEahLCTV1GATqzzEK3B67i2hUIacjW8gfm1xDotPTPGWRcfoFmGpjLJoGsk6tp80odf07i38=
  0
TEXT
  8
0
  6
CONTINUOUS
 10
0.000000
 20
-36.000000
 40
0.200000
  1
$PLWDWGd8Hvtm2FW3G0M5b/W+j/H890yaReO7QIVfbgTpy8/1pXP+xq1PfBTz5Wfm8SGciAFY+iV0h8AFsL1S4jnAQkbzCDGSD3VT/BF8wobYlV+mgby9gOjE8iJbzgDBwzUCwb8QT1r7qWF2Ahu8W3m1u6/0WkVBdXDnZhbhV45tlqHUg=
  0
TEXT
  8
0
  6
CONTINUOUS
 10
0.000000
 20
-36.250000
 40
0.200000
  1
$PLWDWG0s3peJw09MnREYKUUo5TPVpAXOuTtT5Gj++TkoYK8WLO97umVjnJzDOfFueS0n5VIzcDWRzYnShTQEMWaVxRLBt5EKFFbULhavzgv5I3Z27o4Lw1u9qJ6ha0rU7yu2+TrpVkV+ZRvhasGDEnEUMCrqpJ/q39n4vN8vZ2NgU8p20=
  0
TEXT
  8
0
  6
CONTINUOUS
 10
0.000000
 20
-36.500000
 40
0.200000
  1
$PLWDWGBlU1X8NYq+Im/jShvP6nJa75PaPCISQSC9UtJPjsI2fUPluoiTjVqpYLsSDy8Yn2MCId4gQd3nF+1bXgAD2n9bRavPb+2XuZu9BqAS2Rr15hbzTEZJ0on23u1bvmhdslIfJtUCU3fT0h5Edy5WzyN6uPuNjJ4vi8b3voIqp919w=
  0
TEXT
  8
0
  6
CONTINUOUS
 10
0.000000
 20
-36.750000
 40
0.200000
  1
$PLWDWGAVZir+JrtiiE3NCUGXnSbZmsUlUowpW6lyM1tc7qoLu+OwkOTZA/gGVPc3X78pqFeXQ1byPjsX+WRPOdS5LS3ZFapMwa6BfUNBHEWPFCn6Z2PCetPlD2/7HCP2ABe8HfgqXLIQxTjHTjKPZs8DhlpR3o46sY8QV66jha+rds+Pw=
  0
TEXT
  8
0
  6
CONTINUOUS
 10
0.000000
 20
-37.000000
 40
0.200000
  1
$PLWDWGqhxz/MwmYzCBJ/UuIA7RMmYNOMBgwRTnpPaWwfK6NclJLnIZy/821GVrhhLMiLFREtswro0xM/YxcCUtSSE/8bqBM7EC98gG/hr8HKdg+tz2wUWrrH34BRxvFOCyGNgDhoCONOK+bOQtx+J9C46dXhX4Cy6WVBvyQgdzYaEsCPU=
  0
TEXT
  8
0
  6
CONTINUOUS
 10
0.000000
 20
-37.250000
 40
0.200000
  1
$PLWDWGQb6Y4dLdNcipBXQgBh1CkCw4QROpt3SkQuPiArPwbZZZq5N082epwgOjXSpbUjatyCx+fvhofBlYwqmCgfZbrf/cP3cXfQenhSw3j34KBc+0irPKMUURRr5hAkxz8FjAyms+F2o9+ANETXr4y1Zv4CtO+Ti67pO6qitpQBS+G5Y=
  0
TEXT
  8
0
  6
CONTINUOUS
 10
0.000000
 20
-37.500000
 40
0.200000
  1
$PLWDWGj9zM+HdBrQ+oWvt7lcIAYtjS18Zf+C/TYE+s6s5a2G1Ucg9DzrFvm38Sx0lZnKCAN73LgwinShKY2pjOWlKF3mz4L02aT1kvwhOxKTqtwdsht007kaWNkbUCnz4n32VoEV+7WrCAfmmA6s/TPi7JTQ/ca01J9+vn88Br+oirs6k=
  0
TEXT
  8
0
  6
CONTINUOUS
 10
0.000000
 20
-37.750000
 40
0.200000
  1
$PLWDWG1UynUjiJVRarB7XlPoVhjK7ax+nrnxSEyPzvPRsqEKtUnbAwz28ISeZv3vsYl8TPznssst9ZOvgSFGL+eCatXWG5IeTbB9QCiWly1A4U2LED1Z2JmkXJo8AoyX0s5reEOYBZsrUzeeJMYr8Jja2c+NqNSmmOZs80IRVjYS6VxfQ=
  0
TEXT
  8
0
  6
CONTINUOUS
 10
0.000000
 20
-38.000000
 40
0.200000
  1
$PLWDWG9maFiyOlm748DKNciOk5YiD2dckzPfEPxDy6Pl3lm87hPsRmwoh4dF/AcIF06ZKiOR47eVIf3zxYoiB+3ukKE89HyIx9efOMO+5hsWVNOFYE/hvM9jm7pn4EyfkjQLS+VBkBgFe4AshznIAcAreKxIRFMTs3ckQuQh2dDb0/op8=
  0
TEXT
  8
0
  6
CONTINUOUS
 10
0.000000
 20
-38.250000
 40
0.200000
  1
$PLWDWGhTYOslnErDbQrBfDnSE6QJxHhW99MhvxxqwXw50hOkAOvYXlbux/QtW3MZ716nZt/gq7r8NCF1zeCSsWHqnj5USzifps3XlhOq0NW1TvrRvRH2KZnccaHlZPlLpJlFMokRno0/s0qRrwjw1XIK5hiVynf331eTHKp3glO5W5FzY=
  0
TEXT
  8
0
  6
CONTINUOUS
 10
0.000000
 20
-38.500000
 40
0.200000
  1
$PLWDWGWSelyJKuIdEXUjD1pn/Vn7P75aY98LhsNatOhrXeGANr5wkjecnTPzclP0JZJfns7qfypCfQuY7bMLGtVBcKi8q+bxDQ7EZVsP64SElzYL88koBoSEgJQpSaJ5EZenH0aqUmBUTdFFnKNds/nLMk64LEai4Z+jRqqP7OiUgMHDo=
  0
TEXT
  8
0
  6
CONTINUOUS
 10
0.000000
 20
-38.750000
 40
0.200000
  1
$PLWDWGPPIaRaSw/0u9r0dz7zmZeJIXictEKhnPmLy+OW1rcgvA764+j8RjTNcItCRu8lcHjCrudUAq/LjXwOuE6LBR0dlcGNQK1g6q+UBiMHIIAzb5GxGV9XveRjb5o2gcXPPQvD+dAyX0DLElHSnUfzYaFKRs2aBAU+9zLy0GQHOC2Xs=
  0
TEXT
  8
0
  6
CONTINUOUS
 10
0.000000
 20
-39.000000
 40
0.200000
  1
$PLWDWGFqsG5SXVgjpDuGpeu/aFZgdJ/vhugINE17YqIGuDWFYfGQciMqtFa/sEUKXCQujAS6Ku2JinJaorqg+AxLDHpPBQm4D756Wnk34agVDkd6e2gVdJxNCS5SFlvYGZhRZjISkNwxMQOMuXGi9ZF3AC3ISxDmaHU/p6Z2fvzSVrkDM=
  0
TEXT
  8
0
  6
CONTINUOUS
 10
0.000000
 20
-39.250000
 40
0.200000
  1
$PLWDWGqLe7RQlF1oAeKJ4nADmieygNDIKM/+eS8O3SsF1WjTwmJu0amFvcSnU8I1Og47lUMW25t7PkKPl9MrUppefXSM/rbRAZ+r9bfiZ0DVFbpOhkClY142OBj9Q5bmS2cBHK4DkSWdEo895uyBgv/OO13GlZKihbYnVdS2LDBW2n5nw=
  0
TEXT
  8
0
  6
CONTINUOUS
 10
0.000000
 20
-39.500000
 40
0.200000
  1
$PLWDWGrQh9LsPRY82qBQfF422fy4GdMBNfrySlZnpvWwxuSDVPcmQ2C0+XRjxkcuIlEPPKSDRAL64tbahqYZVavATGE3cNEGyZlI8x1CHWPHjIAru4SWgDQTOscPeRi1nxPH+77GbXm4g8tWzoZqMKB6hcOxk+Ei9qmLYHLBLG7B9XFn8=
  0
TEXT
  8
0
  6
CONTINUOUS
 10
0.000000
 20
-39.750000
 40
0.200000
  1
$PLWDWGCFINwVES2WnvRmvhUJRpwTnutlJ8g+puk35yyDCno8E8lHrmGnhHUGPqgsB9GKTC0MfErH686rNtPZ48Jzy/JBidJ7ZaCUtf3xBk/JBZsZ8RX9BOPSG0rHaUgT42v60REBsx/QiWMVg2jetGNBsPg6eXkZCbKEqrD1II2CPcCaE=
  0
TEXT
  8
0
  6
CONTINUOUS
 10
0.000000
 20
-40.000000
 40
0.200000
  1
$PLWDWGN0/6JfdN7g4a8RTWzJTbjsxwEcEptnXGCeam0d/5BwoN5GFnKevZTGOdwHwSZvq2AxlzCoczaK2UyGPrXohEQ7gmFt4toYuWuWzEEJp2MLJxNJDR2PeBiz0hDLZxu7lY4cZgJg1PYyQFv/4E5g4lVgYkYDQ6C4GqNufSrOm8xs4=
  0
TEXT
  8
0
  6
CONTINUOUS
 10
0.000000
 20
-40.250000
 40
0.200000
  1
$PLWDWGQOeGokmLTABvXbaP/2vKclT8noMjO6N3Q9JWW13uVE67Ym47dclmhJYJv9QfCkNAIWCFin32VSyWCb/UHwpDQEkgQfEMnn+W4BMqFDXnfxjdo6L4G96gaSaxGxIm27mxHDaGfkPOFAEl0WQ0S9lveaJQ7p6sAkoinVT0RV89BKY=
  0
TEXT
  8
0
  6
CONTINUOUS
 10
0.000000
 20
-40.500000
 40
0.200000
  1
$PLWDWGTS1OUo1jj0Xiol60nXOhXeeEEpg35VESEujrCNuM6o9eP4Y5WHM02qxMLwnm9gOeBOeVTheG6nLK9M+xs1c2qjPDL1cS1va0Zgl7BR2/NZtyVpsYOFhRkZBePP9is1xr2IXXlrBb7Sn0htqdAXAxPfuqO6Gkqur9ZUkorUL6qkg=
  0
TEXT
  8
0
  6
CONTINUOUS
 10
0.000000
 20
-40.750000
 40
0.200000
  1
$PLWDWGorRArqpBNnnjFZF+03mIouMZ4npeHqbHdX8Di/UggpvnAh0JXnouTLYJqFX05FL6gTUjXV3J9DQyB+q0IaEaI8XQgblfH2SzshQZVnzXO0u5AIt1xKZEXpAFYdYz4lp2WwChkJRcSg86v3YEo84VLda6eUR5K4EZuO96mUe+rAs=
  0
TEXT
  8
0
  6
CONTINUOUS
 10
0.000000
 20
-41.000000
 40
0.200000
  1
$PLWDWGNxDTuIOF/1E3aFv9vfOQHI0cU1JhjN2aeFQa/JqOxUg2lgxImYk/hwehd0WF4GjEYA9I413xMjM8aaWVlWUMn2uoS7MaEYktyzkm22L2ff0DXpBLlCGo0QrIJv22VSrpaLzCqDoEmk1FCrm6RELPjff3OzZP27cNSJBVLguFF9Q=
  0
TEXT
  8
0
  6
CONTINUOUS
 10
0.000000
 20
-41.250000
 40
0.200000
  1
$PLWDWGobhUCqkMX4uY4chut0YbPtIHD3ep2cXHrE7UCC2eDLbmzJXorzfBzNcPz7vJ6r1F6RG1HwC/bXELtCWy9O13j3UIvyggcdht0DVMSVOX0I6MgU7lGOyyie6UO9NDABvZioENZ4q11aEqETCdlrCkEtGOxiLoohaI/jCTBD29+0o=
  0
TEXT
  8
0
  6
CONTINUOUS
 10
0.000000
 20
-41.500000
 40
0.200000
  1
$PLWDWGUalnulS/wj/UTMaq+2vhX5IXuVjeHzg5Dw4Sfm3FL7CDVEkrq4SjFP/93uBhbBUcsSCaZd6aRD9KK+H2sTkL55iS896TLqPRQSQmpRP8BiyioKaKJF98fIHMS6cCyXBOf27m/wvnuZvVIddZn/YOaprIigLEUk0mq8V7E1B6KJY=
  0
TEXT
  8
0
  6
CONTINUOUS
 10
0.000000
 20
-41.750000
 40
0.200000
  1
$PLWDWGR7yk2wP3eEuMaSMyryKJsLHixAkihz3yf2LTPa8QeMasfhyWCM6LXexHiktT22R5zWklJYYKCWUHyMbwgimBMtOx4EtnRZO/I3A42FrPsZbNca34kA0stDLJLBnpTV/0s9MfXSxIWRTmAvSLFXjKs9r4S+jyBUmtZ+S8uhrg9/o=
  0
TEXT
  8
0
  6
CONTINUOUS
 10
0.000000
 20
-42.000000
 40
0.200000
  1
$PLWDWGyRlmr1Tot1KWVlGyNPnp/baVGoLFoOCYfrzMnlgziTTyV6MhoX/J7oaqUTbUkgYeH5zJfHYsSazb00vSiqEO6LxLDVtIBnUH1IHF3hqm4eJKGFIA+qfwrLnfwLT9D1QTlwJYOdMPvMhcs35yztsl/XZE0ZcwFkcI8m5h5HWXnWw=
  0
TEXT
  8
0
  6
CONTINUOUS
 10
0.000000
 20
-42.250000
 40
0.200000
  1
$PLWDWG0TZ6oGCkaeyL5ejevxNCUyLO1+ctPkgNxiHp0sgQHQvINCUbCBWnhRT37wvZUFLX4J3kqbil+emct2t6jbDt5Yhu5irlANOCYIwpgHwCQEBnvKnbheqt91R2OJTWAEBA3xyffTyoB6dL3Z5fUWt3HsPWNWn3GVGMhMPvakBIea0=
  0
TEXT
  8
0
  6
CONTINUOUS
 10
0.000000
 20
-42.500000
 40
0.200000
  1
$PLWDWGVxVqr3RED9pKLEHakJNBcl8XWUveqv2xgP0VePmoe835q/AZyO+dSXZEyxhrIeSy0EsJsNDYS+LN7SZo2ImFoezEKJIkzflrpBi4WuhVXWyK5LtWojmZTwFqtxJsIMGbogC8AJw4kE75GEhSBcLEChnXlLgoMOGRYqqFGKLXUos=
  0
TEXT
  8
0
  6
CONTINUOUS
 10
0.000000
 20
-42.750000
 40
0.200000
  1
$PLWDWG7/6lZrJ1TG8ynuYHhG/uVQ0rHCTvHudqLah2YwfN0jhR1RwR0dI4g2Q2GiVtbYAleiEIoVCFfX7ERFMxum9gMZCbCu1rtnIdmOTcsGe7GVrqMzaINb6Rq/wQdWtbYpDbqeEakJL3uralo0vB1uF9YsNKND/hfrylbS+jncTZ+Gs=
  0
TEXT
  8
0
  6
CONTINUOUS
 10
0.000000
 20
-43.000000
 40
0.200000
  1
$PLWDWGJbf7kwWNyqZeKa+rzj0+qHnzyI92e3J8A6CW/qsGf12fIaw9XZ6OKfGD+XTkz1q4fXKPApudOxPXGouSSUbp0vRU+7uE6lSVy+P/cpmn2l/gJTJrhBlrt0B2/gcIWvUp23Mes6JDEacKH0vgYICAz97BPU9WIc3TKoUK5rQADVA=
  0
TEXT
  8
0
  6
CONTINUOUS
 10
0.000000
 20
-43.250000
 40
0.200000
  1
$PLWDWGogAM93xreAMlN7qZa7Y5K0TK6XkkZUzY909QLRg6p7JuHx1lgexP18vESktniTDliw8tGJdrDVYHCPP0WTcV9TEsIS+xUDR/WXjQE3srwPy23S5Gn6As2V0esx42U/hrdka616KqFEvdzXfKdlwaNtE7HJK8ItTR7rc3JJWXiPI=
  0
TEXT
  8
0
  6
CONTINUOUS
 10
0.000000
 20
-43.500000
 40
0.200000
  1
$PLWDWGDLI9YSe68sb0BNzsyfWRnb5U0VkMXKOuopqtvGBJuOWvlwpdTktYFA12BJHWbV2zibuiM7ZhzY8ktG2km7K+5IF16k0WEDTygzKNcqYdPA+URi/KxjRJPf6FF3feF4u1hXGG8WMc1uPxxwmfwMPektbWw/ByMAHPuU/6w4LFjMg=
  0
TEXT
  8
0
  6
CONTINUOUS
 10
0.000000
 20
-43.750000
 40
0.200000
  1
$PLWDWGa9LLZ31bS9BeaTV7DKyZ1cGVT7MwuYAi0Mc0iHxkFEg3dpLlAFHVpAECNLnxR5Zff2YUQSiGorj36wG7MTff1bwVDIkh9mkGJF7bJm9uu+aXjmCVI4+XywFeIb1N0Tej21KJ1c3/lJnvp2TL1/26G2wWC/cyT3hWIgchKL7YFY4=
  0
TEXT
  8
0
  6
CONTINUOUS
 10
0.000000
 20
-44.000000
 40
0.200000
  1
$PLWDWGsbkosmqb2RNnARFSFarCPh3E/2QjduzFIVkqn1SRhAGt5D+A2tayzyS/nKB6ALiSmx7b+4XHiNI4PPCPSJlKQPAbTlGOr5tGA8SeE6bVY5cMmBIT0P3RIWW+EhW2hQYSnJPWcetlNEo6d2mcBG1yD+AGgxsYdiR3f0ZgichJsPc=
  0
TEXT
  8
0
  6
CONTINUOUS
 10
0.000000
 20
-44.250000
 40
0.200000
  1
$PLWDWGFYWCPeYy+Hztua7t8ER+ftQj8kKpvcKpCBnj0Hwzg0ehpUuiVxnrosz0yipBeLlxIK+p86jx9QzonKIrXBDtFSqXwqjfaIhQhdHy8p7nN1yr4MygOt8Yh0MPMCZk/2qpwBOMQjGkxr9Kw63Wswc5QEbHrOQgc8ySVG8NbA6fOEA=
  0
TEXT
  8
0
  6
CONTINUOUS
 10
0.000000
 20
-44.500000
 40
0.200000
  1
$PLWDWGJyf0NQsOFzwdILVhBh4ZeUcnZySpGDAGfH1KzdPOFMKbpjpzNfrqapq6g1F2/2tqKYQIz6cwwXdt/qrV5UQKFzN9HWbtMyQ8BXdmA388ek3uAoBIYKiDT67kBWFCiFw1nBAjAuv46YoX4J2ZIQYgRrdaOIz4dveQO5e0GKIosMc=
  0
TEXT
  8
0
  6
CONTINUOUS
 10
0.000000
 20
-44.750000
 40
0.200000
  1
$PLWDWGYGtpSs3TEQkJj8U9Pjk/sgnNA28qFRIT+80EePYBMqV3tyYwXkFSZc3v6VZYiIIdapokFIKWqGZJLdSplo2hDLKfqcmqGCVA1P9Kr0LZfVCX03KVuUndhZtCK9ii4JH21ez5bCB44uc9fd6vi408v2lZm5Q+qPxRhJkbCZ/6eK0=
  0
TEXT
  8
0
  6
CONTINUOUS
 10
0.000000
 20
-45.000000
 40
0.200000
  1
$PLWDWGTna62zyJ/4hlC8w5RTIu2HscX0SDAmO2EIyvo6vgy7lUyTYz++Uzt8lNrIfq7fGu0Smisoi2ZWT8AaYi94HuVlrmz9RGnp3Y00px1mNqN+OeAvpZt0H4TdgWd/PGAoUga9+3QPX2CZgVx8RNuyZc215PQ+MJroWiVXxjpeWUsXo=
  0
TEXT
  8
0
  6
CONTINUOUS
 10
0.000000
 20
-45.250000
 40
0.200000
  1
$PLWDWGCkuqeHGpaRPEhUbm6Kvhj8TX5cFGHo3sy1OtgAapISV0tMmpnbY8M64RMXFIMA5f4x90EGs37xHmZBBdfcwl5agx2FfETuOSSraAWE/4tpJRTDjIXi61SBRQynncVrpmAQXAU05zKiTjAWSggdCUhcJk36EURLqF+VGx5SA1e0s=
  0
TEXT
  8
0
  6
CONTINUOUS
 10
0.000000
 20
-45.500000
 40
0.200000
  1
$PLWDWG2Dvng3mjlqlBcZbl2kUtaZ/L98fZ/IuBSq1N7RMQv4k2PpTDDNZqN+UOoXpUVwcL37Au2V7boxZivZlXXylBMPO7sUEooNnTBVU63ZHycTOVzNo35D93BwOcxMllW+z7Lo/y6tsdJAAC4RkMOL5tq5Re7jlB25F+x7LFKbBNIwU=
  0
TEXT
  8
0
  6
CONTINUOUS
 10
0.000000
 20
-45.750000
 40
0.200000
  1
$PLWDWGqe5Qw0caB3m/SRVGIVrxPRy/Z29Ba0b4cQgGODbBghkyZQ2BW9sMCGIxlj6UFAMWn+FSOshJhBi3xExR7yx4Lo6iN6xJISe6Lk2NypymwVRo7bFTcoBAX6PdtNBXGc0FOiCE0VYAoZnTwrXomb2py2LelL5Ce4JOGUCbtPXZU1I=
  0
TEXT
  8
0
  6
CONTINUOUS
 10
0.000000
 20
-46.000000
 40
0.200000
  1
$PLWDWG4km+PlGAGi4vHXhSuQp6S6qzeOodV9uNmuy3a3AdDkhxK4Qns4Jwr/zP4Ag6qtU3pKMFcxZkD/aKCveXqJF+mKkr7cN+K25tDX0A3//ZwO9lfxkfUDcbZQQRIMpsGY91RYMtU0zU6mYPgXQMDkAIFKB1x1RiOSBXK6VZp4epYh4=
  0
TEXT
  8
0
  6
CONTINUOUS
 10
0.000000
 20
-46.250000
 40
0.200000
  1
$PLWDWG3DR1n0v60Tyy35FV7KiewW2wg9fxIhUqB4HVa/gLu1N+bxpMneX0R3kXFzuEYU00/r/cy1fexoyDBYk23xVFhE/aCI8mgRAAJYLunubNPAudpZebDrUcsYrP2kd3LyD2Ugx2Q8110uiQgoOfWiozK0ORu/KM0f0+TIU8rqC95uk=
  0
TEXT
  8
0
  6
CONTINUOUS
 10
0.000000
 20
-46.500000
 40
0.200000
  1
$PLWDWGwJp1pzVW29sWKBVh43E7QH/anUAe8ual70Lzqcwm7P63MBIS5YCCQx5hz4jZ7lb5vE0VdOQ7xulsnPFlWIUiN2MbuLW+DCQeRpVe8g0ESwVz77gPce7z/w8q1Q1DKK54Uq4Jo00Xfy3SZ10XL76wSXNrqIHfoOj61gltY5IDKnE=
  0
TEXT
  8
0
  6
CONTINUOUS
 10
0.000000
 20
-46.750000
 40
0.200000
  1
$PLWDWGhDQt+qqzfUG543LitjdAnPcShArQ1l8qPOoT8iIfV8sp2SHK8H6IN0H2RYsOue7+pMBqTAMc+VrIec7pXS6KY4SyazYz0jrQsfuNqEaR/wPudWHYYlcc7FsTas6WE3m5QRn3YKpojQ3QqsbAoOVmbG/GTdBvWm+VUrOdyx353H8=
  0
TEXT
  8
0
  6
CONTINUOUS
 10
0.000000
 20
-47.000000
 40
0.200000
  1
$PLWDWGhb5bcN91uvW+ZJhPbMFeSiov3LmdNYK0XOgUVUAkDZ0bnbNWyzW6pNJQjC07niJRCXwUwZDWnWHwrgQD6wMpTQXZvoPPlZM8X++VDVLZyiEqXopv0AiKoMQ2jIHoI0niAa9vr6OrBCgjwKJnIDlou8lYv3N3zTJ6huHHajR+4fU=
  0
TEXT
  8
0
  6
CONTINUOUS
 10
0.000000
 20
-47.250000
 40
0.200000
  1
$PLWDWGyMNn3szzF2DeMG7GV7ZzRBA7KNcQ7BXgK6j5f80Rf/ObeIDoU1CUIOONZ+bTiP1A3uLH5RfgYEliCBCs1O/gxeLfEyronGk7RHkskrJxeU1L76oALfuqdC0AdAtoTwDAk8LxfzfOOTvCIOTBAQaq6b+HsicV2vvK4QUPNpxDpCc=
  0
TEXT
  8
0
  6
CONTINUOUS
 10
0.000000
 20
-47.500000
 40
0.200000
  1
$PLWDWGnycWEPKIePCW1oG3RR51msS0k6e5NAEpMSsuG3htaiSoiWbYB0ASBI/4L65QJCsbpUA50Qpt0XhsPCWYZOpb7JHzn5R5FhJfWAZfNzPciubBGQHU1nftGRV8LAR/vzsZcEPl/8VMmn3VuxDoftNT/ilgkWIDp38Ib9yxG6eA1Jc=
  0
TEXT
  8
0
  6
CONTINUOUS
 10
0.000000
 20
-47.750000
 40
0.200000
  1
$PLWDWGe2i860cQ9bZk9JjybzuKizn5NJVkiD21oenYaCHz8S6kaZJiIxd2Axv+eKhNFXvwgE0Oq0YSArSGfJ1nSzAGRr7jxWlJZnFEXd0XFRCgd3Fj6A4fbQCCuxhEwY5wTc3HFbMkyPzOeZPVyRHmCUccRd30b8AqI4EEqiiQREUQu78=
  0
TEXT
  8
0
  6
CONTINUOUS
 10
0.000000
 20
-48.000000
 40
0.200000
  1
$PLWDWG+d28PXAwxQIIZEe9wxTlxEgevXiiZm6qRZ9eogFebTvuxsOeleSB4cGIsaxjvubGoBK/HZvXH7Dg8lnophS6KSpV63Nw5akqWLQcksJo8G0dLCgXYKNhY0HDNecM84jveYRiEhe+sMLytIhzCd6niK+wjWVTEMFqAyo+vQlsBRg=
  0
TEXT
  8
0
  6
CONTINUOUS
 10
0.000000
 20
-48.250000
 40
0.200000
  1
$PLWDWGSwSo6kJA7BgIyw1a8faiu9gKFnIS4BQr1NmuXAriI38D4qnhP4Rnsslxvx8COOOul9LJ6P6ySvtHrvmuyb9jFIcji7KiaghGAL5kQVQOG/F8B52fyD2QsXJmZl/I+iJkFV0BCrCo5cqg5gXG21cVdd6TUG7RAjRwJTpYyfiTO9Q=
  0
TEXT
  8
0
  6
CONTINUOUS
 10
0.000000
 20
-48.500000
 40
0.200000
  1
$PLWDWGGXC7P/lmsKCgn5FhS2+FzPF3QXxPoe7Pfjf5ZF63OkCOsqOnJWyFv3JZ7PJexG2Ql78fshJJUUH0C6f6kVo+uc5i2gMwdFmLa3UGh94nydfGFOalM84fLL4Pzbi0UqjZ0DwhD3S9NNll8hLTyr5aNGSefQfi51K0a8EFULrPp+g=
  0
TEXT
  8
0
  6
CONTINUOUS
 10
0.000000
 20
-48.750000
 40
0.200000
  1
$PLWDWGwra2mvWLKubvSgngNcYEZ+DDT7Qpb7fVI6n+EypaRqeyQ3CC1Dlzgydlmyyln6auRYPEahiw/41XwSayCgF1BystHaaYYX72iQ9Jr9ltepBpuw2MeBOdCrOEVpehcXGtj4qWFj2t7Ai8O1nvXdUpP8s+nbeXp9MMcZrM42wGzfw=
  0
TEXT
  8
0
  6
CONTINUOUS
 10
0.000000
 20
-49.000000
 40
0.200000
  1
$PLWDWGYNOR1Ugd8SJ2BmfGPiaKbMAwekMhka03W5UmfVzWPiic8ZeexpKe6l+XOkzLHenGKZzWSHtC5134MfVNerEdXOifT2vRrCNzs0KFy7Rkmc8h/WmpkomoEPUtJ2xwrCCcmElbT4qaPnroVEM2YznlTQkvSwlUbYtj8B7Io+OLsS4=
  0
TEXT
  8
0
  6
CONTINUOUS
 10
0.000000
 20
-49.250000
 40
0.200000
  1
$PLWDWGF1ObinYRM/xoDbOZ4HKqEu71BCsUECZca4a39Ceb7GZJWDUoqcZ+OI92h5SD2UyZo/NzW6if3FFj+LA6TANNFxJK6wReb0eFPps5rJ9TYbcnN8kbYi1/8pLrZVpgnWUqobm0lp3vnjTjqXD+PUv0w0nlhhSeu/EFKRcz9wkDF/g=
  0
TEXT
  8
0
  6
CONTINUOUS
 10
0.000000
 20
-49.500000
 40
0.200000
  1
$PLWDWGYHJEpH1XCjKilb1qItPdSsOHJyQh5xbauU++DnbN7TeN1RIY20swF+f5xaQi7ZvTI4BUDGqh+eEpE65kBwB2rVi81+LNw9Wgc3WcloCCODHbQIPGVL4iNrvroZ7nc+fTIlZ42rGrOvzHbphfDC+Y6VDhDgtlu+iSyKWQsJItEfo=
  0
TEXT
  8
0
  6
CONTINUOUS
 10
0.000000
 20
-49.750000
 40
0.200000
  1
$PLWDWGxCjjqvaBaSHoNhZmBOaWo0nIr8OorlgkjABk6kgI1G1ScGGS9UuZhedNeCXt+hYjCYbxcPtd5zd8GH2KE/m0YeEwOa84T36J1dWOhpv5PHylcPPDisTiR7B/hlMVYfLNI1LkhlCns/IeUK+tzNQG4bADgCK+fJ5USCoA8CU3xPI=
  0
TEXT
  8
0
  6
CONTINUOUS
 10
0.000000
 20
-50.000000
 40
0.200000
  1
$PLWDWGU1BtdYxNEGRVOkY+tX4BfpQGU9+qQzjUeyK8EWf7AeVnnrLGdB5IZnLOL+ndWb1ZKgqO3fhkkCoN9RwohLfHBejbm5Rlk7MtlQ6VykfB1sokhtkG41G1FfRUQyshkv0X9UPWtL7TRC658tNU2za0kLCTi17cxZ2NS5bVUEMy2uE=
  0
TEXT
  8
0
  6
CONTINUOUS
 10
0.000000
 20
-50.250000
 40
0.200000
  1
$PLWDWGMzHolSPiYuooECRsOBb0H2U7x6n57TaxRAU7wgmZYSmfoAK2OB6T9wsowKGPF9g4E0TN+hVfxLAUp1cW1WYcWhYjkSODfSbD1GyjTo815WEWDPhau19I8WCRWLZV3+i12SPOzXmHrHNQ3TL7OhA+SuXOM7Iis6CsFReF81pc0/Q=
  0
TEXT
  8
0
  6
CONTINUOUS
 10
0.000000
 20
-50.500000
 40
0.200000
  1
$PLWDWG+EMh6zBGDvuYLEoFU6Aj/WjztZH4ktKMTC81rQQC0R+wiTX8CymxLpwp3bpQMzJAsCgrvCMIRDRmsjTHJAsyQDD5CP6bFYQ82hb0rPdePED1hpQEnVD3sI4I6Q6uv3/Es45HtDeH16kCPIwaEAVHP5rSKjT0OQYGjIZQLkcwIWQ=
  0
TEXT
  8
0
  6
CONTINUOUS
 10
0.000000
 20
-50.750000
 40
0.200000
  1
$PLWDWGFCUgRJ/n/1BzS0vB1Ni+F8kB6GlLstD+I3T9TSoBdIsI9wI6tmhGCiqYahnuW+4d2zFrQLklxjvZPpz1LBX3N5dsyismJtzeUWEZ8j7lxKoS5v5VAtLaHsmcPhRvwVF30RD08sSECtp4zEUG6ZIeuedzkEObqSaAyVqgVOjXxdE=
  0
TEXT
  8
0
  6
CONTINUOUS
 10
0.000000
 20
-51.000000
 40
0.200000
  1
$PLWDWGgw5G2MpLRQYqRZKhnIDTF+j18lqmYZGKxRL1+45EJTDXZhKeeIa/19RqxgDU4KB4/K9rr608ESDoFcbdp/9z9B57ymaU/xjHKbExZs1cHTr/vce30WDX5NhgfRO4wv2golbUGZmdpg2xFPWZgibZuNXPSCrtTsxkhjgpGlyk9VY=
  0
TEXT
  8
0
  6
CONTINUOUS
 10
0.000000
 20
-51.250000
 40
0.200000
  1
$PLWDWGo/GgAIsFN51ygf+SSIG/S8hpcmyjsAlAYalBgSdn/KoZhNDxSpc69oP/+ST+PGvBSfeyYxHGzE2ov+g3MzY/cYSL1qfau8uXo9G0OFdlF5IOThcmr5oMO6RPdHHmlNefVwHzwZ/LcuwNKf8hVu3ja7TwiF1f7EGovLNBR4gIo8c=
  0
TEXT
  8
0
  6
CONTINUOUS
 10
0.000000
 20
-51.500000
 40
0.200000
  1
$PLWDWGBEN/836PXRGZ1URj97b5OIWU8BFZt9CEqdYnZR/D2ZYilXjsj+9FfpfeLV+DhZ2p5Vxwb/HQDGEknS8ROzFHovqr9rbc4yNar+uXPr2Ne7hWnVKpbzgnG8mLt3A+m6wOGqd34QZ3/WrREVvYEa9iWS7eq1asuKXCGtzg1Dal2rE=
  0
TEXT
  8
0
  6
CONTINUOUS
 10
0.000000
 20
-51.750000
 40
0.200000
  1
$PLWDWG2KDNV5GmIVsk9PwaagQn0mxjmVwg9CWS8G40qrN9wgpl+Tcsege/CKyeawMbBVe456e093TCDheP0QQFYeIPRaVwpTDfTRitv/RkG1AOWDSbmdvf5VyYFruwvMHoJgRFpVvRCaZJQ09tg09hORtAqan7/wyTTFG9rlMVa2fE8r8=
  0
TEXT
  8
0
  6
CONTINUOUS
 10
0.000000
 20
-52.000000
 40
0.200000
  1
$PLWDWG4GnJBSeATsoXxCUuajt6wD1U7rrxjmN4c9VVNtUbksBkj0A03C/r6WxuibBecwNLs7w8CpzsynAz8ukXj+SBRDqEek5BvdupZ/ONY2WUAkpdroTZ4AB2wkadpdmhE14XIC3wlL/t010x2Br6v5/AtbA7VdY/OZ7rhqsKsjeEtCM=
  0
TEXT
  8
0
  6
CONTINUOUS
 10
0.000000
 20
-52.250000
 40
0.200000
  1
$PLWDWGyh7tyrWUgzGrgelytX2/XxC3/sg1dOM5ZssoADOPNejQfIzJGWQDJTSBZqFbtuLV9CaKLkldnFaYPmtEcAY61TZ+gXQjmPsT7L/wtRHC3jpmEkrd/ud/Xc5YTWqgHkVW1j71BkEuCi2oY2XEki2dngQVZM9cm7d4i8OgOIQllxA=
  0
TEXT
  8
0
  6
CONTINUOUS
 10
0.000000
 20
-52.500000
 40
0.200000
  1
$PLWDWGHnAaVyhe2PDrEiNFApVa7arCXwBGyjXEBB11Zg85LZSYJ5Ou1mEQrdTHzPeYc/foKJVHUJgAeONkbXf8iBxPxYvEDqvFktleb4IltnCJxSJqF73Lul4qi2y7dp8LljpAwsq2WN8PqHM8uMosvuLeOwPSBxfNzl5uoBULmKpXgeo=
  0
TEXT
  8
0
  6
CONTINUOUS
 10
0.000000
 20
-52.750000
 40
0.200000
  1
$PLWDWGx9oq+OkBvXMlqC3TJiYT82egZru8NDNNgFbm2CpUR0dyY0ggNP+B1+FO6OEkZfwICODq4pTPf12ygkCmh1ZyzZQv1eM8Ghn5gtjuRZeAnW/iWqHpAmg1m4Bv47CdjuCVdXWxrWiPDr+MWahWsxjSJ1ESVnGz3jlh0zub7RdrK0g=
  0
TEXT
  8
0
  6
CONTINUOUS
 10
0.000000
 20
-53.000000
 40
0.200000
  1
$PLWDWGKsTk9FrW4YUOiEfzQLpcQZaWK1Ttfas24Onm+YTBll7U9XESrH3OjPh2qjznPp9lqAo8aOuo5KeZ8a6kODNuxFCewDTr94TIfGJZdQ5l3EcsXPmScfy2SdR7XVKWoX2m0xZHt8RZ0pvea/RHcAlO8nmLC0AhFhCmBOoPmdL7lhM=
  0
TEXT
  8
0
  6
CONTINUOUS
 10
0.000000
 20
-53.250000
 40
0.200000
  1
$PLWDWGa13kKQ9wA2QcN8oLzecOYhPvu/Pdsq5OHOSSVQDMn46vQWZIjiK1XbEHR8PL6uPG2LpLHyDCTh9kTvwcHw1pltGfEx5FXY5VtbTWBp8+GcoATfUNi9E1lAeeZJgebdD+FPeUzKSdBYP6nPUepmyvXzHXWJDDOodTdXS8OfjfbDU=
  0
TEXT
  8
0
  6
CONTINUOUS
 10
0.000000
 20
-53.500000
 40
0.200000
  1
$PLWDWGhI8Pm3zOX9uGTRNa4CT33MifiX+lXQB/MgZWGAFflc3SDFiYCMYTxJD8fv7iPUVaRBf7Td4wu/764z8XVdoSviSnRcVuDiPhReZDKKST3NFtgry9tSNlvwRDwqcccNiNXxjyjKX+1lcPkH1CumQjHOWbKUs1dxysM5HSrM9SyYs=
  0
TEXT
  8
0
  6
CONTINUOUS
 10
0.000000
 20
-53.750000
 40
0.200000
  1
$PLWDWG8ku3wKy8g78gEg8RpCSTiwYVPThDQrfcNUBharjVUvm8oEZGJieVsmIwsTpkIy5pJumHRz7QMv9CPyHJ9OPZXdwLzE3uU9LHdA+iBuh/8VuCm9dNYB8y7mmh7m+TmasIHc+3LsyowKQlL+k+IWvVmHEwqwAej6aa5JEvhjoFlG8=
  0
TEXT
  8
0
  6
CONTINUOUS
 10
0.000000
 20
-54.000000
 40
0.200000
  1
$PLWDWGjbc93Gbd7zeEHACbv1voez5dUp8D+jm5Mm1I3eeWJZ0fbxt63NBmV8NyNLdnVvOFf608AhwL0LjihTSXniStsIFrsIN50n49781kmYtEasY5CXGjqrBnhKVVDTV7IwIFXIAhvL0DtgfwUGrn4Nfu2YDE7Hfl8ukptFKib98Tzm4=
  0
TEXT
  8
0
  6
CONTINUOUS
 10
0.000000
 20
-54.250000
 40
0.200000
  1
$PLWDWGW7g0lZeCA6o2rt6nIUOj4h4FY8FxMTUxS4zTvtFA07SHyAtsJXwb3HsCp/YvWid4vRpBLKMVub3m1wdRUL4Yz1WkHziu7/n1sXtU2k2x114NgjFKC09YNus0lFFjmcudHi4qJcoszuPQd69oS9vqRu25ppoQIVj1qkaRw4i5l98=
  0
TEXT
  8
0
  6
CONTINUOUS
 10
0.000000
 20
-54.500000
 40
0.200000
  1
$PLWDWGh0tm5jtbNxswzjzY2brmhylZm4jcLilqXuia5j8j66PpzCCzVOMgqG7KPw25X660kKf8eS7yMJCPSgbljAlHFKymYhgFrVSPOHAKAsApUVghHroxUNZN5kTh3wtGKbzi5bKIc0tzK3t09Pg9VCE6QKfbzU4UBbTLYJlUpyJiLT8=
  0
TEXT
  8
0
  6
CONTINUOUS
 10
0.000000
 20
-54.750000
 40
0.200000
  1
$PLWDWGgwj8CDNuEhr00kVTl7NSLLdgSk/De8nmnuCujur4eNiIlaobhm5Rrl5HZURe1ivd3Zv2RCt0tqhWn8wxcuNLf8rIPsEKBAotzuiGZFh5yKfcmAvPUJtE4XzbNoI9W2KaaTphe0SKL48yIWS8OCNrDiqZaJUT4qCQPxuRc1D7XlA=
  0
TEXT
  8
0
  6
CONTINUOUS
 10
0.000000
 20
-55.000000
 40
0.200000
  1
$PLWDWGB5OoHPsttmpoZupcgC8uKhODXal0i10VhZIcQGmhNMI+2Phpm8ckedXm5ErlKnbyIMDTtsLnerNT3RpT/suOGWMQ3+uw/UQooxjikJeQwO68pHl+ffR5LlnVjW4VZ68p/uuhLH0Ah0r1wNDMA5t4CGGfXgW3maPUamkJgcXVfsU=
  0
TEXT
  8
0
  6
CONTINUOUS
 10
0.000000
 20
-55.250000
 40
0.200000
  1
$PLWDWGBLEJ2GfLRBAm8o3Ju8IWmwr8xCWaVYzmRTgLOYCflKfuS/DLJrMOEyidK8ch54/xyXRXYx5ctyI8MEsyu7bpYhcJvJZcaPFyJz4MT322lU+lLokktIteqywqYX0HSF2PJEIbdlEYUZrHEWn/3W6VYK4BCrxvObd8VDgJgH4xNa0=
  0
TEXT
  8
0
  6
CONTINUOUS
 10
0.000000
 20
-55.500000
 40
0.200000
  1
$PLWDWGEhwG+P+ZaMUV+b+3tggWa1STPQ+vmNcpsEetxe7EwazqJ/qHZNGYu97amVWa8SAhrhL/pAP9wMKITvqlv8S1/cLjaWuq7j7qYHh1DBeVoFCI4axgGrzo5kfXMYAV/nX5atx5yj6d2gidDVFGY41HZz2LOoSfrn7HM5dYBTKU8vo=
  0
TEXT
  8
0
  6
CONTINUOUS
 10
0.000000
 20
-55.750000
 40
0.200000
  1
$PLWDWGfEq+RxemdqP+f2+t8LWFYaxnjCFRJJfnKQQ6v9kYKXYe1xZiYm3xB1wv6j2iqMfNVaB95liko43iTYjeh0VInb9aK+0qZnYr4brAYQ0rrB1EOH22phCqxlS2oj7iJ4qsG9BuH63cZ7QwDyUDhgM2yHdqykh0FrbAqib4Rlr2vLU=
  0
TEXT
  8
0
  6
CONTINUOUS
 10
0.000000
 20
-56.000000
 40
0.200000
  1
$PLWDWGgHxOy5eSzl+Eud3mtg4i30kgMco+mTedsxU0V5UeslWnfcsB8Ein22tZz/FHVtq7mhxndg3Vr8eNdvwHUvpjSc3j9t0TKz5cjL4sJUTiFc8yZwhL+o1sfsWDhNbN3LOIUtReSyQjUPuJKsKZYGvv195tVkUxJmeYUT6qbAcKltE=
  0
TEXT
  8
0
  6
CONTINUOUS
 10
0.000000
 20
-56.250000
 40
0.200000
  1
$PLWDWGd83WnsJiQlbPB2RXA4IHCtEaaWTtp2amzfUg+Unmsn7eslQQiqx/xlRYXoZm98kOITlhoODdE6bGcnBmERFWJ4DyD5XJAs7tb7FY9XvQPaADWedN3oBre5fRUl3AmE2y5Lw3pfomnJuZZ8mt/AY2JZEF6us4RZAHNLxPTmSnkvo=
  0
TEXT
  8
0
  6
CONTINUOUS
 10
0.000000
 20
-56.500000
 40
0.200000
  1
$PLWDWGPuZCsYShwARZjq0VkaAX1Dm4+f7AzG76qJd65kjyR/ynovo6G3AvsAlXNyGlfWlQ57PUCIOGO0XSXmv48jq6UzY45YJv8RX/AItgsf5H+/OWP33dghP3vcyGvj9ZoQCx59Yki5Cw4rotNUSia7dD2NJ8QRkTv/B8r/kTsQMSbOI=
  0
TEXT
  8
0
  6
CONTINUOUS
 10
0.000000
 20
-56.750000
 40
0.200000
  1
$PLWDWG+ilWw6LHbR+PNx4vBa3wmxsxMqG/p6Iv1WLeQb5eNJn3IPh/4kSzlONER9S2AZN62TNsX2R0FXSV3PC5HW3wuQdDbpk+S3Hf+2PYKeSTFFKcpP90BxuQjrJxDUYXcF8wGeLXFOAevbsf5FrR/ViN+yQ8oywk0IeMAnYm8LudEcE=
  0
TEXT
  8
0
  6
CONTINUOUS
 10
0.000000
 20
-57.000000
 40
0.200000
  1
$PLWDWGim3YaCbCLwh5DImu2c7sR8E9eax70/Uq+7oEdB7WjUTNjz59rZ1kene91Wr60dp3Jaz4KIa2uB801PEJn6NPQTKBB+RF8UtPBgxJGHU2FXdRuH9HsL69ySj33RupIN0ISjiWRTRM+4yhvUB/vWOXSrtgSSFgl1pvCMTVxlhilng=
  0
TEXT
  8
0
  6
CONTINUOUS
 10
0.000000
 20
-57.250000
 40
0.200000
  1
$PLWDWG5LFkRHmtxy1JEmwIn/Z05WHMcr94i8pIjzWjvb+3EB4nPsn3rhVjlgRZMahJpPtwaUHRduJEnAyX9MtylVly/IV7PZu4JFNtEJ3ckoE/VpMB8uy8ZQmzLgerBti9EOZgGP2J6xZSYKE5XwoZNSOdAMIiaplxEuGE1dToE4diPEs=
  0
TEXT
  8
0
  6
CONTINUOUS
 10
0.000000
 20
-57.500000
 40
0.200000
  1
$PLWDWGoqCOgaM+GLHkPapf8A0lKAfHma7NYOP1fx814W3asl5sE7VkTMcZHMDkp7VZk3LU0DK9a6b48SQHDlEI0VtFEOUMhreMil4IVsJ1Ai+0B9XC1TRGIRTPCEhZUEw+p6/0cf8c2kFoDOw2wz+l7sXNF4sb2YAJvVjX8BDX95UCvYc=
  0
TEXT
  8
0
  6
CONTINUOUS
 10
0.000000
 20
-57.750000
 40
0.200000
  1
$PLWDWGFoyBtCPJZXN94Gu7yWCFiHlh9ferjNsrs0LcEhz0nH9rG+RPVIGaNbJeohu+NEgVRxw0ZA0DHkBi2k6dO+jeXnsTAvE8qTHE3z85mC6PKMWBzGqd84u8TcqRNodNGBkNY/eA0XgNKU/uyCiLElqb21c6EUjs8IbzvIaNCkeLRzA=
  0
TEXT
  8
0
  6
CONTINUOUS
 10
0.000000
 20
-58.000000
 40
0.200000
  1
$PLWDWGeVs/z6ujOax+yFbqKI0FFysJGlsJt6ib/35qyTOM5/joTuvJMbYL5HXaXFUzuKIk20EhHM//mTnxaYv3jerQkiLW8Kw5abQRt64qNj9Shm3QHePYPhbqyI5VIAGRj6Kj9kD0KXwhyBjv840QatQsmPuCC4b03xHZNyEaJfmE7qs=
  0
TEXT
  8
0
  6
CONTINUOUS
 10
0.000000
 20
-58.250000
 40
0.200000
  1
$PLWDWGV1sgOWJQkl9M5HYh93A1GyY9yzXcD5oaZREQogY21LYlI92Oc2lbDVY8buDmay4UrZG18QGhnTwbRvXNGbd0epwtqV6+uNuD4vlxm83/G4BiD0wjR65hNxud8pramzNjLoCMwTzdx5sinUtcja2814FLKiMXVpkaTeEhvtVYahQ=
  0
TEXT
  8
0
  6
CONTINUOUS
 10
0.000000
 20
-58.500000
 40
0.200000
  1
$PLWDWGeLO/P6q3XuN227OFbRA6K/Du0szxOqNY6RS1QrxYSPezqQVn76FTNJuJsN3EhnweARORZLnqZSs35/Ol+0AM/x87o7Ck8GAku302cOT8fnv0gQmJx502rf5IDXLOHl3fxzNSr6xy3RPvZnzYtGDQrUfciEYSL6s3hZGFWu1m1vg=
  0
TEXT
  8
0
  6
CONTINUOUS
 10
0.000000
 20
-58.750000
 40
0.200000
  1
$PLWDWGF0RNkJ3Jrm9p8xbM0dixGHABNjY08ByOATiST25BY8x6v54Cg98GvQH0Y0s7GRjq4I+WZCTrLPjFd0lof1ESQR2Kj6XXIFD1MFbweXv/oNtw2ovr9ybmWKP2ytum2PHLTMWD/IlkvRRRe5f+eS2O9uIkKzYQRJGswS0XXncP6Bo=
  0
TEXT
  8
0
  6
CONTINUOUS
 10
0.000000
 20
-59.000000
 40
0.200000
  1
$PLWDWGLGX5+dBgWQ4crj9LDw7VDQhDXa8qvSzCmqyJoXhDkvWIO+nCqeuLxnG4B/7mF2zevLrewT63S9K8pWB2f2zp/UxG4ZkphwAB6WNbTHHjiTj4zlfrHzvdaubJLexbSvsvjoihInjE0T6/ca5JB3KdXxkocwv0BwIqXZb3GRQX6Xw=
  0
TEXT
  8
0
  6
CONTINUOUS
 10
0.000000
 20
-59.250000
 40
0.200000
  1
$PLWDWGvzIJC0e76HkKe0ywIqo5R4+nYyt9qfejswCfjzzdRSWL3lC9gl+dirHmxXINHQhytbv+nSiKlziuakmmnpC3RTZYcD2ZOy//dgqRI33JmtlF5Rx4704VV8gnGjzIEBW6TwmR3vetq+f+StY2vm3lBSVVGgMfrGCOFk3LpKjSQHw=
  0
TEXT
  8
0
  6
CONTINUOUS
 10
0.000000
 20
-59.500000
 40
0.200000
  1
$PLWDWGCsmW/5yWDZzeN+VcbYmawiGR8EyOyKywArz9x5axhY974P1Ozol4m/5UxMO4Tff139PLs4a0Bx21RXzbXXSftb/nmLPPj3UZjeU9x5j8iShCqsBpOTRQP1rO4/S0xAnjzxkYA6tXwvf3P3AGCoLQqyPerBDNPZR398fIZfMLdyY=
  0
TEXT
  8
0
  6
CONTINUOUS
 10
0.000000
 20
-59.750000
 40
0.200000
  1
$PLWDWGYUqhqX9J8BdAl5FQ9H5SZM0FClGF2ujG9wt5dRpkblY2m/c0fuqzaWT8VAZYcClEf1FRBNLfSEQ+FW5eBWfLhym4sJbSbOTM5ciVVDwuQYBbLQR5+jIx4w6gOMOd7NKB90eeCTE6FSEesVQnwixY8qoj9qOZmDy9NkyrsXT3pfU=
  0
TEXT
  8
0
  6
CONTINUOUS
 10
0.000000
 20
-60.000000
 40
0.200000
  1
$PLWDWGXTmtBE3NhHEzvR/k+VNuKr8O1VazTHiEezcrBqX9QiVMoUSgvY1y5YtAEUy+kL4ggOsXWQ/3F8IQJrRhTjJUBUMZAuU7QmrCpqFoUkPJKSWKIfJoviAVei0MyYxSULhkYlu1bADXUS3NJ+0++TKvI8gKR5UrQ41WSVxr+sq31Gs=
  0
TEXT
  8
0
  6
CONTINUOUS
 10
0.000000
 20
-60.250000
 40
0.200000
  1
$PLWDWGSKP6okMG4xewiMVG+ubYBoyLEYovKUHZM5u6DYb1sgTc6TwCx/GlzfMw8//ldOJu+ARvo538Fx6Bk7FbmIN8Ccs8cyU+MufoAMG8yfWhD5NuwSEUjhpMt3kLsKD8afS9Ofm/KoGzlFdC5blSHvhWBQ9qUd4YJScwtMYeVeP3CRc=
  0
TEXT
  8
0
  6
CONTINUOUS
 10
0.000000
 20
-60.500000
 40
0.200000
  1
$PLWDWGHtg6sGIGUnAXL4gve4mQ63YxB7mgZRAH9GWj7Oi8w7Gcm6X6O/BuEPc9f7OZIl+ydi2l4Eagln1Ls2lokqlvnWU/uA1KYNviN++lLKHa9hVhunOuuxKwrhCMhNocL+jB4LTWe5cpDZVP13XXTud3LAGHIz0gyzktW0R06HE/xzo=
  0
TEXT
  8
0
  6
CONTINUOUS
 10
0.000000
 20
-60.750000
 40
0.200000
  1
$PLWDWG2hTS3qLfNzFamixm0cAf9tb8YZeqeb/ajTGzUP7Gozlq1DBehsTTubsnAgFcNxHeSJwhcs3grbOe3MT5KKC7R9jN7GJknbaAorV5U2xyXRqvm/HqYY99DR4iFopqBH77WmgfHtJCF4x9WQKlcdhxJ2irENHIpSe5ZdbXTs7wnDc=
  0
TEXT
  8
0
  6
CONTINUOUS
 10
0.000000
 20
-61.000000
 40
0.200000
  1
$PLWDWGq7MF968lPuKzNsRvmawED61Ozf0cq9CCzcqZ5H1YuzfidgnhxCwipym0kYiNRupPT+SpOPAnBgKFqcNbjp/LnWnwoR3yTVsSwZ15UohpOg4tbhQZmHtnGYptpyafjOUrGHMe4bJZlViOfoyTkYPmO8wNCpgdF1eLD12URNh0lhQ=
  0
TEXT
  8
0
  6
CONTINUOUS
 10
0.000000
 20
-61.250000
 40
0.200000
  1
$PLWDWG0HWHrK8XrAIdib/vtdO3QOMl7K+mEoLNxubHbBm15XX7oP/X+hpG8peXfZcHESwQDQPkhOKexdFadAndZ46iPi6eu/la3ZSONtrMo9BUw/HEzKFjV+PZLNl09BqKpXOg8nbEBQmDlFvJAI1UVTr6mG5fSfaGQvqbbGTL3Wmss4s=
  0
TEXT
  8
0
  6
CONTINUOUS
 10
0.000000
 20
-61.500000
 40
0.200000
  1
$PLWDWG8nnN0gEJ/GCq3BjOsoYfqsZdeiQvK0yvIRIQal0Qd51pqQ2yzKAuTdbJ15xb8+PdPllbgXlYY2vhJOokcl6fTtb1U+YnaSzCaWUTEVOdnrFMcB5Urd83f1ZLoww08iLm8K+jT8c7brDxuAOf1W8M/9B+FCkB8EXLUMUYkPnAIG8=
  0
TEXT
  8
0
  6
CONTINUOUS
 10
0.000000
 20
-61.750000
 40
0.200000
  1
$PLWDWG6P1Afbn2I2IraZcJHjAj2nf/po1nuniTc0yOkvVLH2C0anuiAYhnoteE+SC4+WMznt4tkgc0txL6r1nJyCvVkIcaMCYON6xa/NPhBREjO8zkcs60klSdCd1WDGBIRvrqGF4xMuwPxWh4GZElIOMSqvyLUTaD+ogh5cbgUSrtFQs=
  0
TEXT
  8
0
  6
CONTINUOUS
 10
0.000000
 20
-62.000000
 40
0.200000
  1
$PLWDWGFHuHBoRZGaWQR+NoMGI7LcYkHTjz+xiCvLBueno8F6/SU4Aaaxdkx045K66gqZQVkcYWzgUIrcIcNGI6b5SqSKriUrTSGACGoyfcK4p5vQcaSfJ9NbaX65djSYE4SeKUFMkMyOaGS6y5v1DO3SpC95qWzVYKY4M1gt8crHKgOT4=
  0
TEXT
  8
0
  6
CONTINUOUS
 10
0.000000
 20
-62.250000
 40
0.200000
  1
$PLWDWGgrosHtoQAW2fSNTQKGpO1mbEPVWqs+skgcbipUvOROOnbRSVePvLiVyusWiJsJe6Cd05fsa9GZaZgP4wfQl3+TlkhTbNx3g4Z0kRm818mJNPPe4HhMgJ/I8cSW9AKExhatpJVfnW+9z6mOZoF+CP2bMEv8Qun0bpCbRtyXpH6LM=
  0
TEXT
  8
0
  6
CONTINUOUS
 10
0.000000
 20
-62.500000
 40
0.200000
  1
$PLWDWGarbSM0TqtyW+GM5rqnpdRfheOGwnjNgNQ5MXVT1Ej57Sbb+Lk0fqqtR0SSr9yDlmJtFJ2TyUZWRPQfMQ2irYyXjBIM4uUjrQl3bWWMua0+VIjjuP/H91M8in0ZnRp14kemj14SzYP/W77OMJ6qNYvd6YRn0v273cjiYg1IIAM0A=
  0
TEXT
  8
0
  6
CONTINUOUS
 10
0.000000
 20
-62.750000
 40
0.200000
  1
$PLWDWGdJBZdq9jtU+y/s9hsBEzQAQbBiE8ZiicDLnSWnN1B5h8bvkBh/Wkl0pnrYEKMNE8Ie3G2bZcM+dWrCifG5Ilw9cgY1WeuDO1nuwie6w39XR87Dm72XbZtGluHJGWIFXzzbsINZ/V/n1iFM7+OjvY89xOAwh8W2WBYRRLMpaLKzA=
  0
TEXT
  8
0
  6
CONTINUOUS
 10
0.000000
 20
-63.000000
 40
0.200000
  1
$PLWDWG0Er5UKDrrQVbEF5bRTfMzoTYG0JF9C3Fc5ZaYusmqWlOEn/I7fSyNSbZtUaC//f3yb8PAIv+KlnFpoQzNVEIlyS7b99rEchHpFSduMXxbdsIHzC6D2CYV9n4DVDqzOglmWqSCqJWh7hSKflyQrBVoNzf4uS+6IpctVn9K6W8z64=
  0
TEXT
  8
0
  6
CONTINUOUS
 10
0.000000
 20
-63.250000
 40
0.200000
  1
$PLWDWGNRVHG3+/Bd37XkAobkgOzLfKI2HGtPKUpS4W2A6EJ+SZarfca5b+88AIYX9I+7YMDNq1EbtGhkECO44bVWZBhBYpHce1Uxh6B3BNtF1f6rcH9JXF0pnWj9qCUHUtSI09cddsd+fkendLzLmavQ6mgAmIrIlpXnX2kYbo2XBVKxQ=
  0
TEXT
  8
0
  6
CONTINUOUS
 10
0.000000
 20
-63.500000
 40
0.200000
  1
$PLWDWGXgC0N3vQK/1ng60QOEwzrv78K3Cmc7ieHYo6Zq42vZFToiLOI1qpC6E9w0wyYKZhlq5wZDTiwfOussiz820D46Jm3gZp5jB/QoQRTuIdgTgxdnNuWi2jy9/1xbVdJEjUPh9Nyb1+ZEdmKY1R05MtVp8GZvBgvofgoYhIaECcA+o=
  0
TEXT
  8
0
  6
CONTINUOUS
 10
0.000000
 20
-63.750000
 40
0.200000
  1
$PLWDWG4Z0B0AMITqVo7TNwnEI2ACHTs+nrrREZKKOl2dzlq2rnGXgw+Wk6Op4beTWryOq+lgwK9ca5XzK4hwg0uvar8WCl+0D6g7oJkOAdbi1KeHcRAXTuASX68THraoV33wqsO+5W/lif79xgL2/fKEqRKfLV2drWfHoluTu67866eeE=
  0
TEXT
  8
0
  6
CONTINUOUS
 10
0.000000
 20
-64.000000
 40
0.200000
  1
$PLWDWGzYdhHwbGMWO/B20DH+h6rZ3LCJzJFEBfPWe6ov8AugDBir5CqziSC3R79jvi395E0XMuFsELFVzLFI+CaNgUNTJFKLlh+WI4nVeL/sqeO4yWZ0/fxmeu9+N54eKnHeVp3O1EzZwX4+7eMpdyJmw5g6g/1glyBx9lu2XlBGCJ3eE=
  0
TEXT
  8
0
  6
CONTINUOUS
 10
0.000000
 20
-64.250000
 40
0.200000
  1
$PLWDWG2LgmIuIQNlSgU8S2qoHSlLy3XGb2Rb1qv2e01b74U13eDL8M1/k8yYmmurzQrNOBGhubqD1XSVP8/bt3zN80Vfp4Ru0IyoZe7kt9t+Os3WtwVUVOIaDIRS3I1kJAQcLeOD0r93m5xVUYkiotuNqPbGRNrsbupwaJF3soZOxPGNI=
  0
TEXT
  8
0
  6
CONTINUOUS
 10
0.000000
 20
-64.500000
 40
0.200000
  1
$PLWDWGjVyzp7xeQfLOGStU2CA4rEX1u3b2lIFtTf3r2GZFfjG8rL0ENGoeF/dx2RinSPV+XsC89uVAQpCmcNFmdIyH8p0uCIxJDMPEXFXL3fvGL5V0G4nW99aOor4mIqhPF/LHgZgj/uk2HaZrfHz7j4Jj9lgkkGSt2USWHZ2AHs9iibA=
  0
TEXT
  8
0
  6
CONTINUOUS
 10
0.000000
 20
-64.750000
 40
0.200000
  1
$PLWDWG9IbhneK1bwWRsU9YDwSAh5jf2MWoJKTylDDT9kEeKEBkQhTANp65epQw0/ZBHihA9uNwwxDT3Og1iPPyQ6bwgAd3jc0XyPi/eP//SF6p0FYjRgBGOV1uH9D7ixZckvAOGP16d4mtUXpigjAp7S6ohmObeffDygHXO4EA5vH3r0Y=
  0
TEXT
  8
0
  6
CONTINUOUS
 10
0.000000
 20
-65.000000
 40
0.200000
  1
$PLWDWG5nffYelEDS7r9JN5Qmhb9GQMFgzAm/S6017BjLz9vOGlgawnZ7Pa8dH4tmGciEsFhKuUvgPrBEainzP9B56Kfb+TOhe9LXLB3Nv3+U1OhgJEDvKyICIRtkBK7l6uKFE7491mFFSdA6AxVUJcwA7r9WIlC284e+25811JJHVpEZs=
  0
TEXT
  8
0
  6
CONTINUOUS
 10
0.000000
 20
-65.250000
 40
0.200000
  1
$PLWDWGDvMaQdVE5OaSvVWKx5e6Z7aN+OkVjfhy8Xishw5RNrWC84A/Y6a2UIlleswYLN7gvT9SqqUKQ5rov5QLsKJoM3eviBslcPuQvgitO/n7uhHFqHKxL/1fFd+W1QmeyI0yOZJtP5l7+pGWyXNQe8BJ6NVev+ugQf6G4fp/AvBxscg=
  0
TEXT
  8
0
  6
CONTINUOUS
 10
0.000000
 20
-65.500000
 40
0.200000
  1
$PLWDWGIAm9JrKlrHBuAuG8yj++lSUBwhy9qjl0B3DVyw1kMYwgetLGnGyvGcxI1IdOHQTVW2g/sZ7z0h1gKndzreYmcA0A/6k0yVhhOZxqWArFdzXZ8TyW0Mj4x3WpSoJOvvaJgOERHHDmFmCtJHvzgCAA5TGGo5iHaACI/FSUzEihWBc=
  0
TEXT
  8
0
  6
CONTINUOUS
 10
0.000000
 20
-65.750000
 40
0.200000
  1
$PLWDWGN8IKHkchOXcSU0Puw3TdxO0hFvAyH3Q4NK2ZTnM7mEgaFFK07QOGlhp2nViZJjhXmnaqkI4Un4nVPgzD1EMS2KXTOpCRKHerxWkNXuiXKqOpxvFdg5vthYwEXYGSsQ0q32DblgQI47sk3D2EvzLmRoyBiH+Zz2oP5WQ1rGQymzI=
  0
TEXT
  8
0
  6
CONTINUOUS
 10
0.000000
 20
-66.000000
 40
0.200000
  1
$PLWDWGKu/7YyAbPZCiyNXzYQLC8A0Bh2+/KD2vifaIIAP6+TbDSbHnORA14eFBKxatEf0VRxusPZQT37u1RD/B9l+n74VlSdjviocH6nadE7SID8PoQGAeTGROb+MaoIVFq2ykqXgs0YHuLxswm05ZzhWK4nQVxiLZLWH1apDmHemHXxo=
  0
TEXT
  8
0
  6
CONTINUOUS
 10
0.000000
 20
-66.250000
 40
0.200000
  1
$PLWDWGMcnER+4a6QwkQDkTN/cQM82vpSVyZJ/t1Wvl9j750vPTQuqn2S27B5QJEhvuOmzFUDzLT0TQUJOF5EPlSReQdb1/+0YKxzidGpKAKnwUUWb7jQHbX9bBObgarTDSPJTVljB/SnWZBlzzqSK7KEE2YYeTr2FOdgqaJiYokiqjao0=
  0
TEXT
  8
0
  6
CONTINUOUS
 10
0.000000
 20
-66.500000
 40
0.200000
  1
$PLWDWG8pNy9LNgk+hw/x8PUiMjDxQHNg6w55zmtsPLFp26p8+7gp/Hfbo/FPy49/G+iP1Ke7iggLUcRxkYD7KGdYbKOCOmGnZkm649crbR6cEUv/Rm5LUbA9Qpr9NhoLsixM+TKPLdGiNZBDe9FG5//JOLT3+lu/j9GXNa6lVKO2VOIX0=
  0
TEXT
  8
0
  6
CONTINUOUS
 10
0.000000
 20
-66.750000
 40
0.200000
  1
$PLWDWGJIxj+P8NooW2ioyMybEIcsBLKJtr+Nluz/YMAD7XLyjYmtbKQW3XfwdPvndMR/xIL1Dy4fbYXlpz7isaFwAzQMkjdCR6vC4G8XpCUvPuNI+09YhN88EMrbN9zAxm5lkV+zoW/SdTFFtT9hs1q5BgK/o+HkxbtTtvv/1+0nGObq0=
  0
TEXT
  8
0
  6
CONTINUOUS
 10
0.000000
 20
-67.000000
 40
0.200000
  1
$PLWDWGf4CQX6qgBSzypI5J64Kn5u+fRd7gmS/mWscmLNqgZiuKsWZ4NsxER0Nf0/DwfZtxRRFqxP8Ox1KyABo2FPWDRCfC8rJb9ZrpnWI0VxtFCkYIUkyWsW7/XWQZ9biQWNK8NTvYgK51KwERyDSqFrmJOFOUlxnysa8WYufS7esdtks=
  0
TEXT
  8
0
  6
CONTINUOUS
 10
0.000000
 20
-67.250000
 40
0.200000
  1
$PLWDWG4wW4Mpgo0ZlEV1owrADaNJehFd96E8UIKEJSItMefNkpx6dXZM3NrKPDhvlFsrBtM3m7lLi/k/UA7A3ht2Ktg7ZSMTjhIpCu9ZEnE6LWwkM7znCCZqgLLw/xl0PGR+eKQGdHo7l2Xr+SrabaVg1MOw0fO6d5vLelNM6FeECGDyE=
  0
TEXT
  8
0
  6
CONTINUOUS
 10
0.000000
 20
-67.500000
 40
0.200000
  1
$PLWDWGCWYm9MFfU9gXsSwK/6gLRBiYI2L02rRT1KTbsJS3i1Kg3GGAGfhukwy9rS0F+iaauJfx51LceYzkK+S2Uzk56BvNsdgsWOboC1DlTtyiFniDXqv8c1MNntjabFUNOhfoa525hciznFv33HNpLmkf6Wp3zUfUXtmXVBkg3T471xE=
  0
TEXT
  8
0
  6
CONTINUOUS
 10
0.000000
 20
-67.750000
 40
0.200000
  1
$PLWDWGuU7sVNAYcWsFgm/6FRYnOAaf4WKmeP1YhAN2b1Qo7NVhMfB9+rx25V2Za0f1G0tF/sXIseP6ag2SIzlMxM+9EP7sou3/1NamT2MVgp4UIgFef2J+RMcvAih1mGM7Ee4wkEMhwOD6eyqA3OMU4fiQSsvppto5H9YKQm6Ho1JSLEk=
  0
TEXT
  8
0
  6
CONTINUOUS
 10
0.000000
 20
-68.000000
 40
0.200000
  1
$PLWDWGGIAXqD5wMuOk0qkqi7tI6xPmM1Qs50YCZOfAtFiDVDIOTmQZUFCjullOyHItNcxOuJ0x8roEveNsnSOIbLtcR0xJ/0kkfc8tkC502aPsiTDjVyjPiJb2FjGUNI8OSixlxX2uVsV6TLbA+vQ+e2d1JGVaAqhKK1fF6bMYzdel10s=
  0
TEXT
  8
0
  6
CONTINUOUS
 10
0.000000
 20
-68.250000
 40
0.200000
  1
$PLWDWGNluEoWXEB2p8Wrz6Dq9hkJkW/hTJpzX7zOeq3k8TwV+LTgKNpEHPQ7FvfPxPTh6aX00ZefKBtPx4ZMClFIAest9Qh9S7H4AS+KmfN/SsPDrvyrhuuCtJzmc09mz2XyYXqiuMIWdJPVB7fYaDbC/12X/8EyJ+zgSkFnt4zdjBGEo=
  0
TEXT
  8
0
  6
CONTINUOUS
 10
0.000000
 20
-68.500000
 40
0.200000
  1
$PLWDWGrhfj6Krb4Bn52LLEL/5QA3tZV7yUqsgf997xXKXDh+MvDv30RpBuJWt1Pfux3SQbbYkyC62nnP4/5bsC7JQUM/pElXwGwz3n3SBoD2wfabvqy77wBX6iJsyIpeasT0sHEjolgkhx4coGSAhSry2afof2w9FwA2DCqQztnA1gBa4=
  0
TEXT
  8
0
  6
CONTINUOUS
 10
0.000000
 20
-68.750000
 40
0.200000
  1
$PLWDWGwxB1GNDoxzvCFYtvc/z5juT11Mcj2rJKSBSRwrw2wGWkH2L0CYWbKwGwb4bxp/xU53pxwNtpSvyItkY2wLl9I/o7GmK1kTwqBHGSFySDNwrHvqjJ428bi4q/sG2bQbOKaJDIN/+0A24Ymg5MZ2Z9KbRpZWuPpqs9VaBnJLK50EQ=
  0
TEXT
  8
0
  6
CONTINUOUS
 10
0.000000
 20
-69.000000
 40
0.200000
  1
$PLWDWGQUoBBGdk+wSCAyT15FppjgfcAvfeTmSH2vV1OVvyFqzi80E9uxCgk0J98bcd3PD38RfBMqb7rAuQjUxtP8R2QQQxkO9NoheyaQapYq1WAD46jvcj7TsbW+abjsALVoxVfKWovwV+2xSo3gA6nwkAsBG35yoWFMk61Nf8Qj/o5Qw=
  0
TEXT
  8
0
  6
CONTINUOUS
 10
0.000000
 20
-69.250000
 40
0.200000
  1
$PLWDWGqZTv2e3eGpJzLy1yolbFxyvsTBekASNQYeSCrAKR4MFiIKIM0ww+6FcKt7NlNCqhovsoI850kl9Olm/yXtg1/dSpMQdpY62R7o+OPvbV2KM+V7aTLPfrSBVEBjxm4zoJWscaWfQR/9c7acdboN7LX08UlBQk1Px3laLEvIqaq+Y=
  0
TEXT
  8
0
  6
CONTINUOUS
 10
0.000000
 20
-69.500000
 40
0.200000
  1
$PLWDWG8y59tzBenua5MyjPWLu9By0q6LUszaI75FkhX/at1PjucMP2JHCc+vbN2NClmEhfOV+6r6yJLdydoJ5rlCbGUxRfcnvlBlPbKdtZdPwuCEGtKjMXdQ8WnwmupVNOcj5eNbFOhSLCmnW97phW1JR6oMeeynX6a2yW4aAccGUVsAk=
  0
TEXT
  8
0
  6
CONTINUOUS
 10
0.000000
 20
-69.750000
 40
0.200000
  1
$PLWDWG5OX8UZEGF8sU8reUiYQCjjF3gN76IaJDfCptc7g6XJPiY7JbHByQ7iGgffWqUDUO5fTbJZSs1sJgnh4heoRIIL/Xhqqism0EdnIivmuOCPvgJ0+IozhUUmkT5U3I1rkeOUFZH4Fneh9cJGDbA+Wo9bc5c+Jxt7DfUkjcEnMAV1k=
  0
TEXT
  8
0
  6
CONTINUOUS
 10
0.000000
 20
-70.000000
 40
0.200000
  1
$PLWDWGjJn5yZn4bNdAG3sP7OwhObKN7xmaJBJzJxxRm5IiGgYydH51SAW87C+MV7zq2nbHNIvmoJa4kEmdOe+l8c8Qj+gJjYCrE3Mc8nH2R4RYY5QZaerSzW9xD8BFUyl4yG/+uCZdsgKAlXIfKUP5JNYEZ2e2bUOIQPCHDOwEvNHB4mw=
  0
TEXT
  8
0
  6
CONTINUOUS
 10
0.000000
 20
-70.250000
 40
0.200000
  1
$PLWDWGsu0fBjRTsfJPDdu6+GGAou+MZrWV3n0rpy6m35EPoJh9+/doK+kE1bDUCWIuVdzwd/ip6l+NrtjCIoM+QDJqxfD5tXStOmM4+NMntNdNZiIbGrwXq5sVNrprdsVXPhB3RiySWKEx6JE6aC9arxeBx7SOfaLaLbx5VjrkAgM3lN8=
  0
TEXT
  8
0
  6
CONTINUOUS
 10
0.000000
 20
-70.500000
 40
0.200000
  1
$PLWDWGN33hQS4kNXzyezE5iui5yfBnY0i9UeD3MjHBpBBfhY4IUV2Whz70pEtg57TFZ+YLmxkFsgFtFLmsfmgzjj0Mbhe6w/9e/UV7nr1NAZdTyNesG6cAuQKEybPk4wGwyBnhCh/5c7eOvPVxTLlAdT6udpGbB+68LHhj6Tl+Siu1WpY=
  0
TEXT
  8
0
  6
CONTINUOUS
 10
0.000000
 20
-70.750000
 40
0.200000
  1
$PLWDWG3R7CN7CEFkNwyq390Ev6j58R0/UxVS19Pw9Z/EhDu5UIfp0TU89dU1gCWAb9uXBhJ8TCa6LEKvcINzkJ2GcXtXtHh3DuNfpzyNJbUvN3QdcaztB5kmitkIfsxjaKTIGQUtArlpnHkk3UT/v4xk/JNGEOyg5kXfG5w9NyFQe67ls=
  0
TEXT
  8
0
  6
CONTINUOUS
 10
0.000000
 20
-71.000000
 40
0.200000
  1
$PLWDWGkJPhGAPbEx/6XzgWQzmedsUwcC+en3EdKm2XavVA0YFNtioV77190dY7d3k6KWsD7DhJHuV7Pt2U8QMT33JwbyABmEpuHF8434rrVUojtr76d0qOn2MO8KLcOo5Qwvua6eQtA35OqgvUUU7IxRL1wYG29Tmb6QEnf2vWBmEtc/A=
  0
TEXT
  8
0
  6
CONTINUOUS
 10
0.000000
 20
-71.250000
 40
0.200000
  1
$PLWDWGfF14bwnrkb1fSyvHg73DAEGuMkRhm9QIACiRDay/T3GO2of/DkKfIQtY1pS2abC2lrZv3H97C9I2ylKX6zIl35bwUjo68qKp/YxPasZ46kdIbRBW9YsdfLk6rRmc2sFmarkvjPvfg3+4MaIYLWDO6fg9flLIvM5CZUGTrINa64U=
  0
TEXT
  8
0
  6
CONTINUOUS
 10
0.000000
 20
-71.500000
 40
0.200000
  1
$PLWDWGVVVI5jlUbg6A+regiKp3St7/Od2Q40HoSrGdDUd7zAJRumaZ7p0FWOGj0db9fyz1ChpbJydVOR+9Q2AqaJrDbTro4cqz+U6TK+W8HSzMzcLPnqODhtUmAGKdltQKACqYHcy8pv2O8nUw5vtYsytvwlRmv0w1HNzAI/hAsjfkLI8=
  0
TEXT
  8
0
  6
CONTINUOUS
 10
0.000000
 20
-71.750000
 40
0.200000
  1
$PLWDWGkeZaaQGcUvDZFoPMGitjnGGGMRFAU4SCQ4SIw7Ir+CzqUwU0N13P17zEKp67lLl0eIodna2Rq9f5cjLjSnnf4+uge011PR3STUDa7vHBY8OcO1YOgX+Fn9tdrTzSCsY720o4ePB5THHz9iRjo0hhSOlzKw+zp1KQ9xPwvF4n1rA=
  0
TEXT
  8
0
  6
CONTINUOUS
 10
0.000000
 20
-72.000000
 40
0.200000
  1
$PLWDWGC9j/o9GiaQ6tp5YGV3+WI6fXNw8lt0NpP0T/0PkiM2MbmPPCebi2uEF2UimwiaqP4ocqqZSM8gWXs4O3V8zaeiNakJu7QfTqzmtJhPLJoIFogrfDuKKRG+pVsIIHNV5x6H0RWvV8ajvUh1NxpyW5z3RJwAG5qEJEW150SgIvL0A=
  0
TEXT
  8
0
  6
CONTINUOUS
 10
0.000000
 20
-72.250000
 40
0.200000
  1
$PLWDWGXj7OJk3vynNn29JIEHVKCQumLrWQ/iM5XD/+Ge2a+eS4gHPA5aJdytVHGlFXrZrrSFwbfOkOMhQmANzd+1UlcRZey7RJfkavRXzvZ0AHRcVnQHj3e3U0ocZhGWOG92cwYzq9w5YuuHD3Bb0CNatlD310jM5GwWXepKSSpHFoDiE=
  0
TEXT
  8
0
  6
CONTINUOUS
 10
0.000000
 20
-72.500000
 40
0.200000
  1
$PLWDWGjclTaUhg8ynL0w6ppn/dTvgfP6sHam9P5ZcEqJppQAFD73dFOWCfZ+736O5h8e2wUW5TE1qaby1Osxk6CSHatMDYVGDxHjivknrsTuqRS1e8jv2DL+yjGsLfEMK9s/eiGge9FHKUUdAamarWEpT3SV4RPWA4kX/BbFUTVF4sn5w=
  0
TEXT
  8
0
  6
CONTINUOUS
 10
0.000000
 20
-72.750000
 40
0.200000
  1
$PLWDWGTQHXRbXq8/PXkfZ0K1Qp2vmJ+YzTWdL1KBYb/+Svj0Ki2E8uhvkv1p9n7PdZReFzYy12Bw6tZYX657rpT44nn9/+CJjUJd6gWaoYvSs/SUVh59aRTyL5VUexB/dWbYVeIwhHvhxLyrQ5rJkSDTkOFjRY1cGHFDmgpH+/2zE5x+0=
  0
TEXT
  8
0
  6
CONTINUOUS
 10
0.000000
 20
-73.000000
 40
0.200000
  1
$PLWDWG/ObLvKDYcX1D0lAcdX2kI5PSijD/AYgvGmhIgB9g9qPL62yOGaohoGYTUwj33KggLq98l0MjOrqvEwj5ZB533JYrv08coSJ7pSiQrVCVTjZpZS6gR3Ox5IwGPRwsYdNsYMqrv7hKYRCBg3zyOciQN4RJIVmSJ58+IZjW99DUi/8=
  0
TEXT
  8
0
  6
CONTINUOUS
 10
0.000000
 20
-73.250000
 40
0.200000
  1
$PLWDWGaG73em2PZrs51rUi9dk38f5cbDR8aUbgxbtgnwDVfCT+sHaGbi1eHXBc1ck063NO0OFErZPLCwLvqSCFFrMrSK/iwQRprOMsIvTsiL3h9ykqTtYF0wYwVWkaCIGdlLh0tAuaWX9lKVcaNcMY4H2QLaqfFCd+UabL5S2gynLCSB0=
  0
TEXT
  8
0
  6
CONTINUOUS
 10
0.000000
 20
-73.500000
 40
0.200000
  1
$PLWDWGK+0QDl4x9RVkjZjFbC+pkBx5qmbGYf2sMpy+xgpn8v4ImaA4tWUlQWXPurCaH/HpmDIPzQoXYfSJIn2GyFxHixjrY8OV3Jwj1An2BWhZSjsANxbAzWqglU+BrJDSRUxHMqAxtxciqTQl3Rtpk6Xs9cI+b8kFKS0bfFei1rTLEhs=
  0
TEXT
  8
0
  6
CONTINUOUS
 10
0.000000
 20
-73.750000
 40
0.200000
  1
$PLWDWGvIJ0l0dNJLg/m+LbjNvXrfH6U+cxPWfF+h4aMcT7ZMmgWQQlcHomQXSp1IW8d4KRy8hbxw0xgNJK0ysYlXqTzNkzxeGlyoePnKrvBZb7chLP2iVifPMySZuJCchjhCRwYFyoPT9aalrdO/Yi8Nu6Dkq9XI7GNjj2Dsn+b+15NWc=
  0
TEXT
  8
0
  6
CONTINUOUS
 10
0.000000
 20
-74.000000
 40
0.200000
  1
$PLWDWG2ymZt6V/P49sztiw1EHMzQNA4YMhlc7UVpLsmEySGXTesZe0feHmohvy7T6HhX7BQOlhdCwM9UByCAykeq1wL/5Iisxp0UZhMg0+yCimRU4afacvB/aZS3sNO/dSgqKpfLrg00G3uwkPe15Xm5pewB85RfEMwZjqRQxhpEjJtOs=
  0
TEXT
  8
0
  6
CONTINUOUS
 10
0.000000
 20
-74.250000
 40
0.200000
  1
$PLWDWGuZiQLM+f/ZlosA3bZ0odv7KJ6gtac2wvLxGBatx2EvI8HMOhMYl2IHdpkInrnIZs33A0DxIn/N6RRvOioa/AgP5AZK5vo74ei11x18daxImvObc+cavyc/1LkHfwJJE4jjDsp4qSDQNsIOYGtzZG1XWY4SdujAZmDrUrHwHX3DM=
  0
TEXT
  8
0
  6
CONTINUOUS
 10
0.000000
 20
-74.500000
 40
0.200000
  1
$PLWDWGv5eGb8AmUIkD4zclVkWm/n4uN1XHrpZeDqFPeBTmo04L7caiwVTucljaB4ScXb2OzUUYYUK+QyyPuO1qqJ8wHP09duCd71vMMTjXT6WmFtSpbC/JSk/xugJo8HxeOsoKnA00xaVIeHotAB2uhQrw9iOwJLjL+QjJCWwh5vlsfzc=
  0
TEXT
  8
0
  6
CONTINUOUS
 10
0.000000
 20
-74.750000
 40
0.200000
  1
$PLWDWGDaKrJfwuP4X05d+cftvZxs7T8Oo4dl7Awemi1+OrS5yJabkor8BQKQZMeT9OG0V4zcOyfKpZm4AP7jtAbVYvcDfy5yKm9KuSQni04QE1KkD3wBPhYvILiUJ4tOEBNSpAzg+R4Im5LRNsc4Lc577OlCpe8gvvNvR1NbHBivD6QW0=
  0
TEXT
  8
0
  6
CONTINUOUS
 10
0.000000
 20
-75.000000
 40
0.200000
  1
$PLWDWGeoOR2NGLB4k28a+kCesPiG5QV/41VnleBFfYb7wsPhD/Ai5TvHv7bp7yTrSrU0WdzfWd+eoIDLkAfdONmZN+EsreiDOtKDgbJlMsrF+Unqsn3hzy3JWXwjTiMHixpgs3WL0W0PqNiYFObs0LFYMAus5EhDg6BrOUiWmxYvDnPa0=
  0
TEXT
  8
0
  6
CONTINUOUS
 10
0.000000
 20
-75.250000
 40
0.200000
  1
$PLWDWGWOurXw3gWnE2JUmAgWLexlYjzlKrpb+VEN817fd/kTJFMZtHHo0X1xOgG+xVMvdRm4aNDbAKuTwix354BD/PeG5qVUgjjRMstPBe8lrpa+eOPfspuw8g0f+CowCkhqPZXNdn+NgIJN5WNjw8KJ2nBF5vl0PWV+X7t4+4P43JFN4=
  0
TEXT
  8
0
  6
CONTINUOUS
 10
0.000000
 20
-75.500000
 40
0.200000
  1
$PLWDWGx85oWtbK0FsARscHrkxuu1OgAA+N2mv385rRLlgdo/LmzWiT9BPw8Cl9m/r8gTRwdcfjlZFSLdQcspoyUujLvbHxcFclSw61TEbxZN1Zz3IJVyV3mRBJqiYxPlu1uwNaXVg1+VdwU50Q3Mian6g34aQYC6th3BpBj4nb0mVlYsU=
  0
TEXT
  8
0
  6
CONTINUOUS
 10
0.000000
 20
-75.750000
 40
0.200000
  1
$PLWDWG/M/k8H1LFoHwfsxGMya4IZBHfnEpO/VFe6vwSLDvuavqGbS4EOa904K+nsett9yQcE++6p6TRJPjU7BLWg2ZaVnvS+ieEpELmkfs9tDHuzMkmCaIHNbwJykzGSd1zcj6OP0l+wyFdyNiSBJmHWvTWqSQc5aLlpzkbTMeuBh1gKk=
  0
TEXT
  8
0
  6
CONTINUOUS
 10
0.000000
 20
-76.000000
 40
0.200000
  1
$PLWDWGFqecyDVI/+EVwXpOaiUq0GeULK+ZG325iJtnzyQXAFjFPPU0cKQoF7T48IdFOB4VCKwq7g8Nyz/aiS/O/CI86wrUvlVpPlTUeUhrQ8LzhC9uS/RtccNpa7dS0DcRTFWrJv/fguDhDVGGiq3dtd9s8H+EM6T5Bo+v9BuPTK9c1is=
  0
TEXT
  8
0
  6
CONTINUOUS
 10
0.000000
 20
-76.250000
 40
0.200000
  1
$PLWDWGxYuI66SzpTKf0gi+SbiFgbTjHP/vbfawWo+0N+qTouXIYdWR3mUzCxYFpih+cFhTEVsS9qXoD6aXEoseDH3nehcBB5CgmB76OSG5JF7Cx1HvDlpxyf7sfD5IvprBtC9PIalNOwXhHnyQzvPYrkNycxv3l2dr+SN7eRnHN1OZpEI=
  0
TEXT
  8
0
  6
CONTINUOUS
 10
0.000000
 20
-76.500000
 40
0.200000
  1
$PLWDWGPKtt+rJZ/ighDG9hoVVcU+4LkXw/1lSVHsjF/ipjM6jd7AUZ1CNCmD8oMtwScipTHJLPsd/NhM2buDCv8XV1QHBoK+HqaUMOx7lnKQSiJyppZBu+W4/hwfmRrK0sJ1YrAnWjXoLr2gaDPhwWtBhN7vhYJRKlOK0SCfd4xxxsP+0=
  0
TEXT
  8
0
  6
CONTINUOUS
 10
0.000000
 20
-76.750000
 40
0.200000
  1
$PLWDWG4AdvOwhkfeoz7LAoKtEot/0O9KF5u8Fsq9OrSukTIu9S8OSP/cnUubykCKYuyO0RSRz0Do/r4ZNrwWQyvdJODCQjQMkkT7xcC4oIrFvdF9Hg/EWpLPOacilSmUfte4ZtzXV10oBf6cZSaXaHECs1QIi6yvPh7cQTp5xGCJMwNUA=
  0
TEXT
  8
0
  6
CONTINUOUS
 10
0.000000
 20
-77.000000
 40
0.200000
  1
$PLWDWGdnylpFD7TPuJN+13KDIOhpUyNzynEuZuLUMXlxbKmC50TNT2NkHAYkPF5R9H2zDJSRgV8QON+wpv16vWGc6OZHRGJ+qc+OM5MJ2dgzIVgfi2QfN5PqcdZGMO+im2+1fE+ZTgapt4vNMUKnq3pzpLrRNRL7fxbqPR3xx6+AeGTCo=
  0
TEXT
  8
0
  6
CONTINUOUS
 10
0.000000
 20
-77.250000
 40
0.200000
  1
$PLWDWGEFRCCwDAsQcTIbgwev333IiLzkR62hdI1RlaukO6VTbjgfs+g9IfvxAxhVzfZSsqgPTFLzqjvdyFuxapzb6Eyh7JshgbxzJDRP1PLn6MpVfrt2b67gRZWpvFS6tKL0/GNdLgy692aeDiEgyxjuyj68KI4LKSdlvBCwyBGxTH65o=
  0
TEXT
  8
0
  6
CONTINUOUS
 10
0.000000
 20
-77.500000
 40
0.200000
  1
$PLWDWG1WOTw+oYiUo9K78CD1BvxDF0faY6Nw/jVUp9E/h0UqDxVQpzv5BAABj/AQYioKHY+4zNPU1mo0oQAkKrh5Y8siQRXDnAz9CjzbS/CEcHr74528RSZpXUv5lAJ2dS7pf0xv7TqFSthHA//rnyT+8+vDG7k6R7X/BIjc/ka7c55kM=
  0
TEXT
  8
0
  6
CONTINUOUS
 10
0.000000
 20
-77.750000
 40
0.200000
  1
$PLWDWGSfjL0Au+hjwmXppzFfyAMNTvtEoqXJsKstsoztE6iTrYiN+iJAaIyEvpRduAjScu56uZo8zIpzLosYl3BhCpzQepKwT8xXnf6KKD5YPB7ogFksS09deK+K/7nFTM6UpAjfRK184c4wJ7fK92Qa13WxRPHG8MQxH3HHWtFqGciVs=
  0
TEXT
  8
0
  6
CONTINUOUS
 10
0.000000
 20
-78.000000
 40
0.200000
  1
$PLWDWG4TtMw+/2cHgoxl5skzzYuwBDT6dtkehlwa5xIwdFjlC0M54uQ1cgBp9rfxgLB3HMbXrq8IrXpcFLzszcrFk+61/7neS1z7YdofwkR5igu6KyxRxbuDDabvSovKSfupfFoteWIActHqNluyEfISXB36SdYasK3BFyN/+W4HQD/Oo=
  0
TEXT
  8
0
  6
CONTINUOUS
 10
0.000000
 20
-78.250000
 40
0.200000
  1
$PLWDWG4lTr+O3WMrur27VDPGfGFiakGoalGyUHRGnoPxuNcpO2Cfr0ff6o+U40Progxf4d//XCvd87ydRPMfMipvaVcS3SQ0tukYcut6MOuRO7gfsW2Xc4TeT02YkL1alS06n+y6zg13i9MldVkQqKMFbqtlUTwxrPR5hlKdKgVmML2eU=
  0
TEXT
  8
0
  6
CONTINUOUS
 10
0.000000
 20
-78.500000
 40
0.200000
  1
$PLWDWGlhkrxZbuMHZAgaGnrE3y+UGGnPXFLTHmxkE1TnYcMDhpJhHdoMcdem7P9IVYu3PTTWPbTt1Ryj5Nt1mHs8DqXsrvskWEJicrspYO0UsLUisUubj+BFIL87LbmcTkff8rrSd2KR/BxM3zzxVSfeRKfXpjY7GzHwDK5fyKoMA/oj4=
  0
TEXT
  8
0
  6
CONTINUOUS
 10
0.000000
 20
-78.750000
 40
0.200000
  1
$PLWDWGWTQrh2a9jOSJ++bfy6GVK91FVzEegDraGy0oF2vu/NybNyJkU1jpKDA79lE3NUYpVEolloT2w8ver0CNBHQQkWM86fPRksWENmvSRhIWEYPDvUelgVM0f6J3Nb/PFpnSWqzCfgib1FM7f2yyboGnuuBg+ExDvi3T79ZyVlRWWYg=
  0
TEXT
  8
0
  6
CONTINUOUS
 10
0.000000
 20
-79.000000
 40
0.200000
  1
$PLWDWG8eLrNKkP4J/cEU57m84lQPEFBlsR5bjk3BFOe5vOJUB40Nb86p1Ja01YloQYJkaGrRJScJ/9c+2vsd2q5V7uienc/S32WK/ep0/PHXupT7TdyfzeJJQ+xVWQuKk+cbJsQ9vXDtEX81Iz07bghC4g6eyA5fbPPwh+rdklxRvBf6g=
  0
TEXT
  8
0
  6
CONTINUOUS
 10
0.000000
 20
-79.250000
 40
0.200000
  1
$PLWDWGjWRcjUOSE4r4sBV/RfWvfoEA942o/9XmqKTPhbtd1wQKzbAqLejNXk/DmLPXem0TTbDRHmvg+cE4Z2DuKSsq0HCvC7jbx3Zp48ejhytd+lwRv+F/yLG6YjRqNnIttTc9knbMWRPP8/0icQXwZwXrRLRaUHpmVITHMEhlp/rWtUs=
  0
TEXT
  8
0
  6
CONTINUOUS
 10
0.000000
 20
-79.500000
 40
0.200000
  1
$PLWDWGrYR5kpyc5w249QvaKAytueJbS/2Ej/yiW+kJ/5JkdFVGT4Qz/BK/SxSLIXGCNhMsTeou1+hgLL+kW9asxD532EWpfcFJoHGhmGRCtuUa93V6Gwmnv/9QMfxDZPion3AyIsOMYkgJWwLVQXPDw40m7d3Zg+1nWnA8ZrlTvo0+oPE=
  0
TEXT
  8
0
  6
CONTINUOUS
 10
0.000000
 20
-79.750000
 40
0.200000
  1
$PLWDWGt9GLJd5jqpIYMHRUv//LyMmFZIPHE8Z5kjvGzHFf8MZgHZly7CfvmQHvzRTsyvyIfgBFz8G7Rj4y+dLaSXutDaW7XthG8/Ys2BncimqEob8qnpLUTR2rs9H1c+Mec056F0Huci+16WSrfhU/gSuUFfKXlz+57rhtmld1Mv0hkXo=
  0
TEXT
  8
0
  6
CONTINUOUS
 10
0.000000
 20
-80.000000
 40
0.200000
  1
$PLWDWGzzBerj6K2T3TSS2tNynOOG73Y/VVi6aMhImtU589Oy6e3ttR6PMg5grIcP2vt3b1nYLbSrCctpGDOtS0BDfI5MqjnhfIAUXHeiqvacNTKY1cdnHqn2SZPlwkAAI4SXVxjqRX1lTaVGmPzn/SGY1MsIoXtmD4kYFqdU1K9vJc29M=
  0
TEXT
  8
0
  6
CONTINUOUS
 10
0.000000
 20
-80.250000
 40
0.200000
  1
$PLWDWGkFtbifHGMu+eW42/6HcgYLRMnDwPQj7Mqg+ZHFlZkNW3zAbNAQbWgs0kvRD+eaPlNg+XHm8i34PKM596VlsPfa41eXVFfTdRqLlLTF1MQZW9s2bD3vaX/jIZTgJOBRjA9zN1k029GCCZS+LFE6HPYErWlKSa/TkUHZHC8s7iR0c=
  0
TEXT
  8
0
  6
CONTINUOUS
 10
0.000000
 20
-80.500000
 40
0.200000
  1
$PLWDWGTfq7DlREYoTZU/23Sl52179kPilqtlBgrP/HDqtceeZo1pvsMmMwfIOKVpFoR58twrCwWvSHQTlRPVVTvUwD5fDGDrcy3LrA7SDhdKIRCwm329F2X/B5lhSC9v/mWwbk+K4kKcEYzVo1ZcYJ+Z7+vDxZpysFaudY+Kz/72+opp0=
  0
TEXT
  8
0
  6
CONTINUOUS
 10
0.000000
 20
-80.750000
 40
0.200000
  1
$PLWDWGILuwFOhSnn48rb+5sW8Nx4ujJTXI8veFt/hOfHb5A9rEyF3HzsRP4FW1+nFDLisGUJP2WnHL+rpgFicaUIQbrvceh7AjI7oMX18Onud/sqqcuO9DUSswkeVcK4a6ik/Rv2i5g+aMe/CHaMhzATfAGOcHx1oBXr9Ntmzlb5ARQB4=
  0
TEXT
  8
0
  6
CONTINUOUS
 10
0.000000
 20
-81.000000
 40
0.200000
  1
$PLWDWGWGvC8EEdau/fNVweN1BVS7CrEFfOGog9/0c+gwWNdFMb2b8aahYy49SkXWd5dzVAuCU0d+XR9Tb+cG3U4VE1QBGzRMer00xCAfJHZUjClIleskcAmmQdHxBRcBslzpWcfbb+wS7QNTOEDf2oThfYVr6FybFHMi1rckYGUAdXKX4=
  0
TEXT
  8
0
  6
CONTINUOUS
 10
0.000000
 20
-81.250000
 40
0.200000
  1
$PLWDWGVNr1Z5uz4o0UEHr0UOmwSsJehWY1B+xPKev1/Fq7HD3JC98djUu4+CXBTKAJtR/Zs2gBCB5gNaLq9Vx7Dhjwr4YegIMBsmhotUcyFLdVfMU5YZ9/w/QUuSURbtlfIhv/7rRiHMM6k8rx1Yh3L12Nld4jdWOobzRr3MenG1ioQsc=
  0
TEXT
  8
0
  6
CONTINUOUS
 10
0.000000
 20
-81.500000
 40
0.200000
  1
$PLWDWGTGAfFzAiUtuu0f9SOfJrxcKgsrF66krMZtS9YxsgcJsxsi2tF2JybjcqQuzCZ3B0F2jSpHIv9D4r4jNse+qGH0JzIYRpu+S0PxVTncRbnqTNOaZZeL8Mg7m1QGseCM+4EYLNFrK9FtlvTLjHs3awQzFixGJgWTfR6sNMFv1XR2Y=
  0
TEXT
  8
0
  6
CONTINUOUS
 10
0.000000
 20
-81.750000
 40
0.200000
  1
$PLWDWGrxqbheZRhtCDq7Jc9UZdgzfBEMElcseF2+jZ9cn3s6/QrrCrrRJ1iQYVsnIh/Xeji1q3GVytEOwRksFmS0R/cnnFhKcQ3DRajNYMIXfIG4hUQ15mP7Q3hQFFtmxsAlVS+9tpeOBO6u9p0o3gCMsX5dmi4ijChi9/ORrWQnXRfug=
  0
TEXT
  8
0
  6
CONTINUOUS
 10
0.000000
 20
-82.000000
 40
0.200000
  1
$PLWDWGYvf7IAJL6DE4rNTUVyyH0pxcrVaPOYTiA3AGCp+/kw1xyd/aAOcLv0ezt1IHJ9scVVVnhy+FGL1j9BliSgpvXPoc3GS9ZHp5yPohXk2/SMRAGvU1v8vi2s/2c+tXVKV23PNKGKazDy7HahAfYQuaTAjdHEEk7hPZw1re75mGI4A=
  0
TEXT
  8
0
  6
CONTINUOUS
 10
0.000000
 20
-82.250000
 40
0.200000
  1
$PLWDWGyPV2oSpw3Ja8+xAgsDd1/CGm0K3QjZvqvZ7vbinESHOYLg4E/V30lppZV9PPDy+6z09SFkX7aE0YZdZMuAGwGNUNhEgNF+OrCOXZa+Ocm1vL0nnvA1cy8oYF+kZ+gqG8BvaOJBuczX79LxJqnD46+IWrSDtNlXPLtv78XgY/R+o=
  0
TEXT
  8
0
  6
CONTINUOUS
 10
0.000000
 20
-82.500000
 40
0.200000
  1
$PLWDWGsaT7hYQkHSnGWARZbn9buPh0iTc9IQJoFwOHk762pjstbGmv6CD5OATwNxVuY8rDxbDkalCdV1J7FlMe2VS5FQymy14nK9Mha7wuR08AbQsUJi4CK6o9gHZPnfRVi2buBMEPC8MOo3hgNmVxycMmOrdzix6+1CeVLUTwWmR04vg=
  0
TEXT
  8
0
  6
CONTINUOUS
 10
0.000000
 20
-82.750000
 40
0.200000
  1
$PLWDWG/77XcBl4TiiExsAaK5ErTJbH6TzaLL9+k7uZE0fScaTBj3OTO6amhOi1oJqwg2p2dRKwQy6pZ9M/yGZuhdwab0qig+1I6AGFbqP2v1t14CsRgugbk5YLoslWbo/Hk10ogfAAVXnLGJVRcPFL7O9YGb3a0tRwuOn8c97oL+vGDPE=
  0
TEXT
  8
0
  6
CONTINUOUS
 10
0.000000
 20
-83.000000
 40
0.200000
  1
$PLWDWGvnCiraQGGU1USdYpJEa3yhbxdvcnXM3f9C0Nsw/MwkonnahQsLbG0QiMGOdS8SXy5DBHY4xmHgTUXvH9U+ywzF9BAEcAWV1XEPn7x9sUNECsLrxg4sF2QR7JEqno5zNA4P/m/4dLK3a+yHcTD6U1Ao3tuqZ1elILisbdR7HFvXk=
  0
TEXT
  8
0
  6
CONTINUOUS
 10
0.000000
 20
-83.250000
 40
0.200000
  1
$PLWDWG0LFQFO8+XDdNDr0BjMruoPsNgeI1IT81uPb8+kzcN8tl9chdDl31QIgKKj0LXYn/PqEzV7bRm/dmi58BLeueItgnXPyhKWzbiBGpWettV6Tqnvk23ZMW8FsSc26s+XK/efzBjxOJBH0ZvIZOB5dFxWVD7wX1kXBmTrCJGnpoWpA=
  0
TEXT
  8
0
  6
CONTINUOUS
 10
0.000000
 20
-83.500000
 40
0.200000
  1
$PLWDWGpHPLh+W7E4AlnZ8UjjmQEuwyUS/S6VU5hoDMdGHdSds+B5Fo6pWlP82M9Ni7+/wOTvMb4j7Vjr2bXdW9TvjDaVC36rbV6AgqJO/eCkJ2ihhVQj7tY7J1hUaTu2UFt56MSq+zpT4QRnguzHPCw/4zShjslzW3cqtDg/JEyrocLMI=
  0
TEXT
  8
0
  6
CONTINUOUS
 10
0.000000
 20
-83.750000
 40
0.200000
  1
$PLWDWGfjA33gI3UdTCUkTlAxm0jl82Z9MYqOSVJ21C4dIxq9DlIkilFEUaI6+WHBX7mj5C167Sz9in98SMF+H064Gs484CcERvUVDOmg8EooTYmjaN+r2lnJ2Y2BkUotUP1IQvfS4XgBGZtv91/EPMQdio9krHymrXfJs46V/Ao7AvWI0=
  0
TEXT
  8
0
  6
CONTINUOUS
 10
0.000000
 20
-84.000000
 40
0.200000
  1
$PLWDWGhdrfcqPn9uKFouBASVJ5c9i4uArndPQ65FdrB/N0iCsNiub8fmVNkZKk8kdEHi5uZIamEjkUjykDK68xedojGX9ApaHbzjZySv0CjnsTZaGitj4EjHgEfQHAAqXhu0rpU0X/SeyeCTzSDioe/shuZW7Mu4U4CXX6zRX67pPkQiM=
  0
TEXT
  8
0
  6
CONTINUOUS
 10
0.000000
 20
-84.250000
 40
0.200000
  1
$PLWDWGeWuZ4/kgt8RwyoXsiskV1aSlSBK8x5hxSj6MVeHzmsSjFe2B9NqGJV15FkDrFfD47d7Fsr3rl06kPkAXsbd/2TMq2qkt8kT4QDhRu/15emUC6Yws5HzPh21A8MEbfLyIum5w4a8C/xIpfg9N8cQ6ZRrLoUYh5senRHh7oC+0wKI=
  0
TEXT
  8
0
  6
CONTINUOUS
 10
0.000000
 20
-84.500000
 40
0.200000
  1
$PLWDWGhkNt2A4aayVGfXgG5mNCtZ3jfe/rcEl/CsCnzfeGBFpHMJoOzGr0yRFCCLVOhlNc250vgUaHHpfMMp7Y88juEVH0yz++sVKtrCvbGzskCIjJtd2DnqZQOkuo9Y1YL0D/LN9eJeK4lNQojIVYL3pVFnlQeiRLirYaNQwrSVfepiQ=
  0
TEXT
  8
0
  6
CONTINUOUS
 10
0.000000
 20
-84.750000
 40
0.200000
  1
$PLWDWGbvHV6ichg3Nhx8fHPCkvDeqjCTslxM3+8eIAqRYp0fKhAG5nb8oTpF8lhM+xfXpRDOBXdljA+1w7mn5JOEYIakZos/U0akGl6RibwOt7t/WCepqQtkRL2fAz1bVMlF7TDjGLto/fq/9phhfimrEdFpo8k1YCmbHXeEhNLWCIJdI=
  0
TEXT
  8
0
  6
CONTINUOUS
 10
0.000000
 20
-85.000000
 40
0.200000
  1
$PLWDWGDMCdG+Kxo1hK+ceGHqT5vbIy8OPkjgWKwobGavofwXEAslQf9sHP/vhM9xZVeH6Bn3jsFbn39hd62RqJyt5qUDST7zXtrGZ9xgDW9j7mxpZ8tNdbSgripQLNsUc7rvWpzKzRxy74KFgk88iPSZYnQGSbUGfwVJpPJPPIj0mWJ0A=
  0
TEXT
  8
0
  6
CONTINUOUS
 10
0.000000
 20
-85.250000
 40
0.200000
  1
$PLWDWGIdOKt/Vl0wA/Uq0hs20ndngGQcglGDLFSEZ3jQcYT4qPh6MLQ8AAkNDBmuBDwf7T0RkpsBpcltlu8XJScu04UyCQIBOKNTgySDeo6no1ju2HW7NbxKIseaGYVQGcfgEeJRbkAMBOC6NTw5dIg3PMPfzLXPGvWunRHSQ53UdFUh8=
  0
TEXT
  8
0
  6
CONTINUOUS
 10
0.000000
 20
-85.500000
 40
0.200000
  1
$PLWDWGOy4ByOGZHpmi/zspzoYtL7einbsHrbM1+7G/S57/bLs49OiMlsYhxD4TDqO1NmXv5fKxS5JGgdYHdFb4Mg3LXWXxHOwSjnR2wOZSt6hRXCV6PCkv62x+WmbDrLWgwv7NB0gUp7TdpA6P45avIGG8o9MaDqH83gxDNlAWUIKW+aA=
  0
TEXT
  8
0
  6
CONTINUOUS
 10
0.000000
 20
-85.750000
 40
0.200000
  1
$PLWDWGHOUYubPMpjKdYK/kocI+4WOALpoG0sjUifHE/kyIVRlqG0K4AVtLqoAZfG+PsqLL3fkqwguwDf1qM9S+qgi3YibxD3Fkv6m14kYcOQXBhP0XO0m7zLWBSvqJmUiVi4K+JlVE4kijrCftFzyMvIYRM+6oO2S3zp06vtjJiGozsY8=
  0
TEXT
  8
0
  6
CONTINUOUS
 10
0.000000
 20
-86.000000
 40
0.200000
  1
$PLWDWGv+yAO9+EsVDK3hLY7Awpdh7YAL6NZHxWG2F6rFgU32k6LHS0mjfYkYovjoqDS37Gm1LoCrihrxeMx8iCUMUz32/oVzLWFroABtl5Dnr83Ti3A+iKsVaOxbaQx7GP4vK5iKllSbeEeL35RFo/D8S/v5+YNNVn97TQNLf9z4tpp6g=
  0
TEXT
  8
0
  6
CONTINUOUS
 10
0.000000
 20
-86.250000
 40
0.200000
  1
$PLWDWGs4jNoNNHkfssDfifFXtXRghhID/+whpOnt/MeZAL273Ix+7VJpaXpJaif5Nc9Rz0Eu33YGjWoB9r8rv4/qOVsnjqE1rLGNaGGmoWf6UM6Zn0AdMtBh5EV71fLJdeqhQXKNMqJoO+gptYb8tXPyXtBzGiyy/DAkky+FU1m+y8xfw=
  0
TEXT
  8
0
  6
CONTINUOUS
 10
0.000000
 20
-86.500000
 40
0.200000
  1
$PLWDWGXjaUAdv/YoG+bIh28YvwuYRBcdSPdV8IhVSKaPhpcl3wD/05UNliSydRv92qGEk5/7QRJ8xa51zgRWtZ64YCxg3NM6bZ1sWgKYGw4vqAjVE2olcObkcSyYOossjO2Np6mI7HkJseOF4LQoetsF+F+XrFeLWaSFAxeXU0/q3tzZI=
  0
TEXT
  8
0
  6
CONTINUOUS
 10
0.000000
 20
-86.750000
 40
0.200000
  1
$PLWDWGfUAB/9NoWs2c4p4faGNao2PpQmYnbc8Ql93JQa3vLKM28845btbTbxyNha0IIhW/C2JkaJapE1PYJKXA3XwC71z0/9Z0NxhmAJs+RcjP7VcLYfJDSohL9uTr1Q1DKcRbktevMDICsAYNbHJgUaKaQr1aUtYMI4kDhSHrcoVB3lo=
  0
TEXT
  8
0
  6
CONTINUOUS
 10
0.000000
 20
-87.000000
 40
0.200000
  1
$PLWDWGESNvEMblmJyopZDdItw97XJsH4OFDCNDZAbKvhyFO96wQrlbbOXzAaw3zulZGVIO+WF+C/t413kBNKM6xezKvOR9+efNPXvXeGtIvIBOKHMaOK3cNhUncwYUz4ktAQz1jREHFYuGPSJfPSoUD0JXv9LVfZvHQwA6rhGmcXlJFT4=
  0
TEXT
  8
0
  6
CONTINUOUS
 10
0.000000
 20
-87.250000
 40
0.200000
  1
$PLWDWGNo+EYI83S+s0OXXrBr42QHOAwt1P12mTMzl16wa+NkCkBK5iRIgWOaqrx83QqRGahsIxoTcWa9/4oFKgvl8HONRd5kdZdrIs3bD6TTD5W5NrTHEjp56xv3L55AtavYq/9vK9q2dqtb/AnWAytYWwkc8VUd11/ffThtCoujNmhgg=
  0
TEXT
  8
0
  6
CONTINUOUS
 10
0.000000
 20
-87.500000
 40
0.200000
  1
$PLWDWGA0hEH0fn6GgpQ6RrJ4f6F1uGb9NiOkmzouHdmNQ0ePKbBpejcCPmC79pStWsFiUy2Dw6dnl8d4394UV05Yppf9RG5x1YLA9lnCRx1AedQsB4WPFQAfg7MjtCQSH6msEpI1QvvOu7tEfi9ZieItjflVHiQJ3iFRhezwqeAbEimQI=
  0
TEXT
  8
0
  6
CONTINUOUS
 10
0.000000
 20
-87.750000
 40
0.200000
  1
$PLWDWGm03EZzmqC24D6JTzXwM0agqG+KGO+cVzDHT296KZ/+3CpYSKBUpKgdHViuErRwRP1kGtBRs0LU8giCgq5cHQr1t+tWCbFAVIoU3urs+T3ENae6jYjslB3ZF5VEyIUE76WZrkuXjsw/HBtgctdDpGEgp9IFbbJra32oUbUFcJ+08=
  0
TEXT
  8
0
  6
CONTINUOUS
 10
0.000000
 20
-88.000000
 40
0.200000
  1
$PLWDWGsMotyh2DsvgQqHONZdeiDET1pNU/osGMtp1KOaD+1jbwUTRQjMIWqV38eQ9XErrgl3gK9DTLxS75hhziAT5sLF6lRYKyDinR0cLxmHKQ78XMz2vjZeSsiYugDBqvizd7siEI/Ny6Cofn2+0ogmPprn8SJGf6SB6duUxxpDdJe+I=
  0
TEXT
  8
0
  6
CONTINUOUS
 10
0.000000
 20
-88.250000
 40
0.200000
  1
$PLWDWGp3NXVK+w2gHXxm+PBeFnIHSBweS/QxKfZFWshP5028hfDLzpXLW4roOovb0lxqUBgYaoM62Dwa6vZ8pr/LvV5wRJEMFaQ7UqqfwlId3TiEVUADzcNgf1W06oNYXZ8w2UkpKQwQfXBkd6exneYxn+uUqFLRUB02aX8sblTVWJFlg=
  0
TEXT
  8
0
  6
CONTINUOUS
 10
0.000000
 20
-88.500000
 40
0.200000
  1
$PLWDWGKbmT2dwD6SVYVphtxxkgoTcrvB3IF8Wkiu7631MMUI1BauX9KwrSq9CRLx19SfDUfZBxT88yO3izEwutUBJS7P+g96Neo/burSTRdI0cYxOCJxHkmXMn9/QBBaVJ2Xs5KyYTJrONnGri+2qniDyTeIdSxt8cqDBVYp+7XJVfyrw=
  0
TEXT
  8
0
  6
CONTINUOUS
 10
0.000000
 20
-88.750000
 40
0.200000
  1
$PLWDWGCCUJWGkHVSF7hVKPXOm9XyEGuZGIsy3docFcw1SLHHTXlGgw6M9Evv5bX8XmMsBhn1c6Nnj4h2zh4FRCsOly+mb4jwvjE5iuRLU1KabykxFWr7svFoecBUVErdkD/xQJ7dRiQcUj0fe3Kk7gEgZ6i/C9gCgtZQbjp7Y3UcZ0FHE=
  0
TEXT
  8
0
  6
CONTINUOUS
 10
0.000000
 20
-89.000000
 40
0.200000
  1
$PLWDWGKU7ftnzDSphYwyRmbS5xvAwRGpScDxZJ/Wn1R/U05xsaWRCuubA+43kB0fXR5rl/fNxKM5rK/9MmveQmMw1z1smM8mLx3HeDr8zarqm2+d9WUOs7rzZN4XXhK1QETT9Vx9niqgRa9u1Wgr8XT7KvQ+t+nSS3mTtcgr65U+E12io=
  0
TEXT
  8
0
  6
CONTINUOUS
 10
0.000000
 20
-89.250000
 40
0.200000
  1
$PLWDWGrbJ/gsOZRTKeoVz6hkuN7G2snpw8eAohZUhHiOY6tzpoQlV8js6neS6F2IP//TNAO+s3IyTb4wNz9Pi9TeczQE2Lddgfs/26jCaxg2RDzpcW9Zc8Va9UE1IDtklFT3IeJmI52Lgz3H/ODgXVOgw7v4vmyoLS3MFe73ndTBKq6hE=
  0
TEXT
  8
0
  6
CONTINUOUS
 10
0.000000
 20
-89.500000
 40
0.200000
  1
$PLWDWGa2e5btPwHjvwxNEmP/Niu/MRW8CjK5XnmyxYgCeIbMLwwNL/po20PRk6YcOU/khAwjD40sS+OZoUSVgSb9yzQYu9zOk5JDyZ84e4nHE6vooHjaR4E4s+XOa/qzIaqU7FinlaVVXTMX4QFD0ZLzRcZTgN/uRT7hJEvGFm5lB6L20=
  0
TEXT
  8
0
  6
CONTINUOUS
 10
0.000000
 20
-89.750000
 40
0.200000
  1
$PLWDWGQaU/PnCIQIDNNuxYHl3a+9UfCB6v3bklTb9o9+/yT2kSFa8Zs+k2Prw3XZRSMwWWt785BaQLCTPvnDu049Q5hj48XuYgP3q6c2oekYhXZNHBpc8bonN7JpxawbBBzh4EyTAQPgcH9IQ2KEcqhqGP2bGIZBooWPqGqh0IOgOTNFY=
  0
TEXT
  8
0
  6
CONTINUOUS
 10
0.000000
 20
-90.000000
 40
0.200000
  1
$PLWDWGj4ZtSoSdM3byRMDCfYEj4KyqgFu99q6nhfl3cpI9BPUxYD9TSgTIu2F95kf28jENTlBf6/WbyyaLGvZbkKKBmUdNfK0o9iVdiwqpcLwfsTidI2/sgXZ0V7qxmso0aOVIYvLvqAtuX56ZuVMDGoiAEftLMwEFrR8o3jpm+whHhao=
  0
TEXT
  8
0
  6
CONTINUOUS
 10
0.000000
 20
-90.250000
 40
0.200000
  1
$PLWDWG4p5FHGGJ495HpjqfuO3+EezsPbTbrLSpryMBKxeuV7wSHXPiBHA18jTQVCiopmQKoEw2wThJplNmVu8O+gfcTyYyCLezB2E0EagXcQt53n0p/AmCv6h16GmmihiIbWmTKZ+WpA14mlSwDcX6XPGP4/CVPthb+SVa975P84kWcjo=
  0
TEXT
  8
0
  6
CONTINUOUS
 10
0.000000
 20
-90.500000
 40
0.200000
  1
$PLWDWGQyArCDbJu+Ms73WmaNAk2Fk59NEI2zDFjbMHYm1ymJv1rbQrLp4xC/cnlCNgz0RohsFLxgUDzP/JrU+M/vd5PFZhaWm0EQicY+ZyuKn3GzTE8MYHOJthMRanbWCGsp2iRPlENeRxeUNgbpTigaMrvTXKLLr3JebcOL5mEfWt3Gk=
  0
TEXT
  8
0
  6
CONTINUOUS
 10
0.000000
 20
-90.750000
 40
0.200000
  1
$PLWDWGUGiBCMKvybDx5wJYmYQD6wvblRFh9Rg24OmasKApFXRP7cOFZy1C0jMh/RP3hupFX5p4W5crwaDkXYXLjs6scKZfoTRiAlY7k7XMWb9LjfUFZvmLiNM5I4Ra2RAFOQgtsP+03zloL64ez5MnRHNe6rBkc1oclKIHodNvAuB1yw8=
  0
TEXT
  8
0
  6
CONTINUOUS
 10
0.000000
 20
-91.000000
 40
0.200000
  1
$PLWDWGBVqocXBnM/PYjvRNwqq5nYr7QxjPzMXlysBISKHGOFas3KgU0AOZl0xP3lt4UIwSqRgq5hz1Gx7It/ve6jd0ZPiCXOZv6WZx3+ekxCH8bOkGP5NEPIF7PyUA4jGeRY/ufaEE0GVmF9ScXE4PhntUr1k/E2Kie1NCvcJ0giUCWOA=
  0
TEXT
  8
0
  6
CONTINUOUS
 10
0.000000
 20
-91.250000
 40
0.200000
  1
$PLWDWGft3gcKw8r+poGJb0y87nG396ckRY+RYXAo850r2QFiPaQ9LCwwExvEW/WzF8wvodbwS/luz9zRAq+dM/8Fz14fEz0OmDyJ+p9TeziTtOMkCgMIEWgBXyroejIgNjVjJAJvpGu2EMccjW0Wcl43OJvs/4/qmbgxsdSdJ8BlS+fsc=
  0
TEXT
  8
0
  6
CONTINUOUS
 10
0.000000
 20
-91.500000
 40
0.200000
  1
$PLWDWGqv/V2145gtsUwyYYIoW5Wg4LStsk4FsAgyHPhl/OsWOVU6r66kZpve8JM9tx9TnG/K14Kb3KX5nG5FcFXPVRD2Q9r+AfYAXl7QRYpylIAPdSToNZ79DBS1nD/zAdOMFbHfGzdVPECVVAJjeeILsvjgiKJU/l/LDVHmzjYn7f8zs=
  0
TEXT
  8
0
  6
CONTINUOUS
 10
0.000000
 20
-91.750000
 40
0.200000
  1
$PLWDWGOhF2HAbGHUbShMTYuaHHeFvFSnQTfEL5VnFSRrLydLDHtu/VfXAkedO83Jq66OOYRWjK2Y8yzQ7no8aOreX6Efx6xOC7DEYwdNo60DxHMNITWG7cS9Zt1uoMaOZK0vsxoTDbmsmB2MSvyKD+dHThi+3zNdrWG5+ArjTILT9R7Rw=
  0
TEXT
  8
0
  6
CONTINUOUS
 10
0.000000
 20
-92.000000
 40
0.200000
  1
$PLWDWG8HCC+WZx7y38gH64pbRXYeYhYcWRuUCW+XfLlIcadnkgUAjqZ1h3cwRYRRgVIZNNRCRE5aCzxLd6XpQ6IUOYqdlRAbyOjR4X6OjWlJ4gP5fMovPEazKpxKPoJnDr3X3M2EX+QAO5eJOceXAzs6t4IH5how6CYVmXUzwljEd4SxU=
  0
TEXT
  8
0
  6
CONTINUOUS
 10
0.000000
 20
-92.250000
 40
0.200000
  1
$PLWDWGo/965SrT2zx9TGeJQOcY8XVPNbxoaiSMjyISFc99yW6jlIEDEJCmJ5BAYeYlcREFzlw6X6J/Sx3U6QirsdABuZM3xMdN2KJIDBjgOz/WmZ3pw70DfE0LyBG4fvm7pNNzpjkHXOsJridceYLw8EFaaijY2L4yLDypB1ARwTG72Ww=
  0
TEXT
  8
0
  6
CONTINUOUS
 10
0.000000
 20
-92.500000
 40
0.200000
  1
$PLWDWGodh52za8Sg62QwV6vYkr+qs/Qx4czwttXfPWsxofjNOuN7VriWEcN3+y/4TBkb89iIlRCS3m9dK6qZb2FTQN9zHUkSxaH6HR8uLmikZ+KHwfek246/XA3RE7XRVUSzgO1kIojrMfgIsI4EQItUYo8b9I9i76pOjAZQ7/scz7Pvo=
  0
TEXT
  8
0
  6
CONTINUOUS
 10
0.000000
 20
-92.750000
 40
0.200000
  1
$PLWDWGAdGfz2jvK6NylXUs/scHS5Nn4+m6iiCk1EQ6aaXNJmxL5g93aromCE/azAxX0kJ9+2Dkh5L9sQAE3ra8sohFT2J8t0gVETafDfMCkdKEkfEKDMHW3leggXt387v2Bb+O4TMeiadmokoiO0BeY7oRqArVZo8EYm/zF7uT64gvS94=
  0
TEXT
  8
0
  6
CONTINUOUS
 10
0.000000
 20
-93.000000
 40
0.200000
  1
$PLWDWG8wScJEyUFA1oWc4pLnbUOlQKW97DzgM9NQCza72P9n0hB8ryEwcCtWzILSGXEBMtXxCE+C4fycNeXKpRAv0xeTeMABq3172O8CZS7mzTX4PQ4xRXbBZ+n2f5Ths14jaFxTF2Fc45I1117k6aRbI4z3EtJWPA9Ud+pXfqPxlDqMw=
  0
TEXT
  8
0
  6
CONTINUOUS
 10
0.000000
 20
-93.250000
 40
0.200000
  1
$PLWDWGfW3gaQAoIGGhuwVmOst0N8gsU9ABtjU6v4W9YH0M6LeRPFu+SgV5Fs6ithYNdioVeNk4EORUvhwjg883NfoIBFib6QoYzxsxWEkU1YBsZ4/f1BhiczIqn1bZP1UzB9IZkL8xvgRYy6pkivkrjKsuQDGxDPxcvxdZ45ceIhuG23k=
  0
TEXT
  8
0
  6
CONTINUOUS
 10
0.000000
 20
-93.500000
 40
0.200000
  1
$PLWDWGFfxlOKHpDdRWBPAGk0YaVLpw2dRgTqwa3EUg4BTx6KCt6KqAYhQe5RS8L5i27GyIOggIpDnOUxDOi5aNk0fECY6u+GgLHdqKgPn1QoFTgpjMcsFqlszzC0I1IEBcDGzt9C1VXL9BTK5VL0hXvTLtYsx7gOnpil6USzj7xYsT8qw=
  0
TEXT
  8
0
  6
CONTINUOUS
 10
0.000000
 20
-93.750000
 40
0.200000
  1
$PLWDWGie7Zx9m8kFCWXo/2r4cdwx0J9CUCAqJdmYAAeQpywhP6V9pP44B5e2e/bJCmnD6+n9ifjnz4LMCeXnrafIPCMg8bAm9raaUDaFjKkHzPF/xQ9/1Zn4j6DR4b6d8tvETlUmSaYg8ORefGTPOmnabkgU5J6xIGkTv3iPU9TwVFOwk=
  0
TEXT
  8
0
  6
CONTINUOUS
 10
0.000000
 20
-94.000000
 40
0.200000
  1
$PLWDWGFoJ2p97LKs7MboxEItOB1aEG956MTay+7MR1jvlu+AKJ37pvyrqbm/Eo9SxYQDBu9YdD0Zo5cFNpgZQQp7IQe+Ts+PlW0wvDABnTWbk94tZ//aqsIDJpv/8S+Ee1xbAP7ReAaaZUaWcYJPQaz/nqWNxkPa0iILOYNlXNljZ4NeM=
  0
TEXT
  8
0
  6
CONTINUOUS
 10
0.000000
 20
-94.250000
 40
0.200000
  1
$PLWDWGYMxHjKV5sCDKboRWozU/CWEnK2a3mvafJ0RiOXcb7gioTz4YbClJIRsvJimQP+Dz/eAwbUZYfaK4Pv4qfcy/qcw5n4n5bvo4lJcAhQFZ9vLC1xRKiqiZzsfrcQJI/aVnRUAsixUDfz8UM/VQpeSyUwIO5DkX6ThHCReouoDw//8=
  0
TEXT
  8
0
  6
CONTINUOUS
 10
0.000000
 20
-94.500000
 40
0.200000
  1
$PLWDWG0PxmENPwd8BYwwHdTIEaLnLL466jbIkWn1OBLRC0sgb5QYdSJVVSuZGL2/wje4E2wcglN9Yhd/UiPgL5J+fzpxtDNTd6swyerKjAZgN/3BnLeilsDLxHNnNArnF/IArnrlqaN1dhZ2v3hrIumUyM3MQi7K6pFJjs5a9uzNDoqB4=
  0
TEXT
  8
0
  6
CONTINUOUS
 10
0.000000
 20
-94.750000
 40
0.200000
  1
$PLWDWGxfitvCR8+3NNto6GaAsaOy1agJ9eV0AQSLBvrQXzAqh+BKq3LdVvDSaLZb5tH6pWrlcXPXf9+HUSffVXv57SMuX5oNQVnJXjf0dZNpTMga4y7I33v0q3wqMkFYhus4Y0+M6R1yfSL+kibd92rvVc8ASe35DnLvrk76w0RkOlE6A=
  0
TEXT
  8
0
  6
CONTINUOUS
 10
0.000000
 20
-95.000000
 40
0.200000
  1
$PLWDWGobDCBt5zU6WqscJUBikQqe4GPcuQOwE4e3Nke3CjSmbc3WpzSD++3IcoaYjf8iBLAW+csWt4/Fl4L8qgwJVAvqqGnQ6uLonT8n9J3sItXLCIt9ux2mOXJCeS9zFNyfaPqrDrztTr6gneHIW9helvFRtEYZbIbE+US9hWRtG2jmg=
  0
TEXT
  8
0
  6
CONTINUOUS
 10
0.000000
 20
-95.250000
 40
0.200000
  1
$PLWDWGKqL/XhHRcQNJEUS4evfkZFmJWtEgkOhxxAiYzyi5pKu/c+PBRedMaaC5RiVq0DBlmXaEr9WNvV13l7XYJ00gO+2/WBayzZ4v+ngFBstmAlqNyqznb4sfhxdVhSVa6BNFu8HHcMueTjD1Lwto0xcRVnyQZYfDqGuEWoo4elS0NUA=
  0
TEXT
  8
0
  6
CONTINUOUS
 10
0.000000
 20
-95.500000
 40
0.200000
  1
$PLWDWG/xq83aLVY/SOn5cuHefm3en5ybkzjV3xyZS0Xt85BgDQM0eyA+tC3KPwklCOaOEIGj+Dpu4TXTbBzncKJd/LyRz4Y1b+Qokdigh9mDtnvYndkEFdXIn24vw/A8EMdILLAuFi9FtX8UBfxxe9xw9sR/oW4lbVzpTz1mvK1usQaQc=
  0
TEXT
  8
0
  6
CONTINUOUS
 10
0.000000
 20
-95.750000
 40
0.200000
  1
$PLWDWGSFMT1LWInYBlezc8SS6J+hBBiqw9XfnlK9eJ+NfRdpAKHAvPBP63Z9myyBaNnRHx2cTsb7QjI6ZTjlgwZjjaxIe9SmVUa1M7hGdz/TpqNaSOT6Lt6V+LHh8IEGMiS7MHVmbUJABe49Zh2YJenaK+p4Oj1ryQ/VClrzl3mjtxE10=
  0
TEXT
  8
0
  6
CONTINUOUS
 10
0.000000
 20
-96.000000
 40
0.200000
  1
$PLWDWGxtXJbfB/MuPFEg1XovOZ7ojqxDou1QebtOWPuMgvmpTCkq8tqCNVbo/9NVhPBS8q4EKS7qAkiCeiocz6/5Szbe4hv7GPjLLKZ6OAaHQClge29jCAmjcCq2nUI2rBz/0W2fi58jTXyL/Quomv90nz/+1AwydxkzpDjRkWnCKL82s=
  0
TEXT
  8
0
  6
CONTINUOUS
 10
0.000000
 20
-96.250000
 40
0.200000
  1
$PLWDWGMwrPdo5gf9dW9xTEbKEG+GOINI214cVoHFOgSrruqB80VZz1nM5NxVtEK1we1jf8Bfr8gSSZnc+yYOam1AaL4mCWmemhFGHSaz/jkyJC+9XyUl+UcNvL55O4RsN8jYuyVONXAJ7pzwGTHMWOODmn0UN746i+baku/yCt0/1dYV8=
  0
TEXT
  8
0
  6
CONTINUOUS
 10
0.000000
 20
-96.500000
 40
0.200000
  1
$PLWDWGeRScGnyBKLpRFksjDVA8c9YUaB6nZxcDgS8+/mUn+IRptgWFDmlDzwKJeV9Kw5DKEfMJr6PW4eNe4XHJWLfh4Wx8xCVbGzmiaXBjS+I+2F0OSnL9f+XL0Lys+BNsOspeYHFgJfjtPJ9bnlHyiql7wC3+efz+95Vdm+/NLL1KRVY=
  0
TEXT
  8
0
  6
CONTINUOUS
 10
0.000000
 20
-96.750000
 40
0.200000
  1
$PLWDWGDUR78GTcNVfNlnBq22o9aZk8l+Bb5+uWlE9T8VfMqRq8C1NYtXIrXlB+pAjW5mqbYKUwZt19SiIZRGEdt/9OVZMsHZHrfk+/S0VatJuXgj5xc4g5mBhcEDNauQUPSm/AIFCCRp6w05BD8UlsEl7KhpjzaRcX9NlnYcCXKjdu5j4=
  0
TEXT
  8
0
  6
CONTINUOUS
 10
0.000000
 20
-97.000000
 40
0.200000
  1
$PLWDWGeeOCkbFQVaCQJZaJu5TD7H4iSkNb47CR5rD/evA+EjkgB+ulXf1QyBctpR5qc0ypkT/fUW9l1Zyj76hsOQ6lLRuiXiqXq/lyXbcqpiFKNjha71CSNisk7Pbf8Pimj11rVawHzoL+ozP/z27jaYSxDryhEDndH3R8F7RYkAtad+8=
  0
TEXT
  8
0
  6
CONTINUOUS
 10
0.000000
 20
-97.250000
 40
0.200000
  1
$PLWDWGMqferJfuQV4pSmefj8q3/62m4qGaqIJacd1hSFS0prNnv6IKZUWB5DTVhn+AHFD8hFVvAhCDi1K2yCPpgX1xCHGaAexnEoSqmQUufFHdiiYmpa7XJAULfoj3fk2XqgaQ/gFQGix8CZcVxJufPfgj1yS884q9bC9nx7wNgQkyATc=
  0
TEXT
  8
0
  6
CONTINUOUS
 10
0.000000
 20
-97.500000
 40
0.200000
  1
$PLWDWGqQswb5vJJ8oFbt09kfckQFHC59jwhWGyj92hgMKC7AbdovCe07/8JjZzcNysQ1duWU7rtmupMOfAT5Qwh28I8GpLc62cq8XBt8dY7ItmPWlOB3mPFAc0UwJzXBobTNnqz4wmhujw7wA2JTfCbqc7lym0yxU4186N3D3cFiwiU/M=
  0
TEXT
  8
0
  6
CONTINUOUS
 10
0.000000
 20
-97.750000
 40
0.200000
  1
$PLWDWGBKwO63wvdzIz/9jDGXZqAXd6tDhgFoICq6HVDejMet+k+0kYCWvLnB1P1DaFvQFTSQSiTG+22UGJ2KCoYw0vS31WvvvwLW0vw7RjH4b40Ts20vR4qFzQ8p1gxm0A03qYjw7K+iCkizN7Tx0r8SC0LyYHZtXJQrJwRFiTzFYZQv4=
  0
TEXT
  8
0
  6
CONTINUOUS
 10
0.000000
 20
-98.000000
 40
0.200000
  1
$PLWDWGkk1fXx+ZQG9tTPNipZ/MPjoyKK/G79/nMvPKUueEjEHwDcAhQEE0El7rsOOLcBqzZcmT2Xfdg8qXF/ROjlLnKAdwR9KZjG4F6Nz2Yyga0M5vrzaW29pjkfnuVs2C5D1Ovj5SzKcC3bPWElaM4TgeGLWEZqZYHsYprn8L3gHZSJc=
  0
TEXT
  8
0
  6
CONTINUOUS
 10
0.000000
 20
-98.250000
 40
0.200000
  1
$PLWDWGWA9TuMb1EJNICLr6ty/tJAuPfSqA9p3aKDWk9snPeRsPYDMulQ8ctCkj1V0xRZIoD3L2RFNL12LxhE3+se9zEjmYjquXpDMq0zt0BinJdwkI/28UeYnAu3/d+H/5+iP3y1YRvXrN6I/L+pXxLE+oikaVpBbSOd+dL2jf0acEosg=
  0
TEXT
  8
0
  6
CONTINUOUS
 10
0.000000
 20
-98.500000
 40
0.200000
  1
$PLWDWG+kCWwYXSCCOHMDyE6FsSTWsfrd0hIXh9dY0N50lAdlVKbyC8/BvFyxPnyD22cMqvMfM1wlKcKA8+9UGU0e+InIw15wtRWS4jmMFz/i0LlSzZualzVMDlTK9ouaxjk8Tx5Hez2N36t2OosgonBkjNHO3EtbrTEVX9oOXxjfTtKUY=
  0
TEXT
  8
0
  6
CONTINUOUS
 10
0.000000
 20
-98.750000
 40
0.200000
  1
$PLWDWG0FrWiirk9HchIdrROb0qpUGvFmf9BqRq8cZCbKoH9WhJcqN/y5LI98fQ/Q3P333+0VzR0IaS1WHd764bo70gwBiz3mM75LSbdUGKY4HX9MM1ecSPkA4Ftfor2+LV7JtCRE15DwZa89l5YCHPWOvBpIlZ5Yyjajy3vPclJ6nfMxc=
  0
TEXT
  8
0
  6
CONTINUOUS
 10
0.000000
 20
-99.000000
 40
0.200000
  1
$PLWDWGnwOvUyOlY1FMulD7HCV0FTU39Po5diNt/52xYqTuKGY2UCeO/iyoLCgsd9gpTZ6pFJe0sB8Oclksc06PymBZ7GhkEaxCtffAKLmlh51S2aZ1PBQVBOAssthzmMCQHtCm/ODrwpNP4eYiQn7BSCRC1aH5wH8T9iICkZUCHgxovwg=
  0
TEXT
  8
0
  6
CONTINUOUS
 10
0.000000
 20
-99.250000
 40
0.200000
  1
$PLWDWG4bJOo2eTMZ/bVOBBz9Nn6qrDSJr3g8meS6koCg+fJSFCbj74EIbE6FxvDYDT7MR/Vir2y7e2gus/BOpsTtU+cEyI03LyN/Wi6nM2SbjtEPkKgE6XnRHkhrYxS200A+3ZUESTN4I5vNcML2x65HAmM6VVBkj/kutwLngnD11vR3g=
  0
TEXT
  8
0
  6
CONTINUOUS
 10
0.000000
 20
-99.500000
 40
0.200000
  1
$PLWDWGqm0ucxZfDKWQgAkxnAKM0FFcOfEKRe7fJNUgnTccM0A6f6gOyX5SzdIBlEyaRDWO4vXFXNjU3Emu0e9YRD0BPrgZyMHdTR1DI49tXrOsHXWmVMSTl+xx3Ec3bCJgFW7Rx2j9nW6HVWhsuG1lWDbDmbG6+V2+UjpB1GKhGk2StIE=
  0
TEXT
  8
0
  6
CONTINUOUS
 10
0.000000
 20
-99.750000
 40
0.200000
  1
$PLWDWGEisOdRMrztFmfPlJ3wFfS+JC6VcbxcxqI9Es/XP/vM5tv5lQyf9/BE1TY2atGj3n9KFSU/vUgD0ZW3+xeFHtv4sfBCKKVhrauRlHPmDOkmMkqotMMjyDQiFoDOX7dV4cwbJE9Pf8EbKzYxfb6rTVYqx5V57jOOFSE1SJlreicSI=
  0
TEXT
  8
0
  6
CONTINUOUS
 10
0.000000
 20
-100.000000
 40
0.200000
  1
$PLWDWGey73SHST79Z+uzXOl+FucbG2M1vpon+5Syhgg0FrSiTW0v/nAbh5vE9kXMTVPiE+ItRJsP/SNF9L1M6kqnlprzsJjzbyJ+y5ZzSqXnOP+DcgofcNqyDuXV7mMJaK1T2RXKWhagpkmtTuiqX127q7AwAq0mDGorJF8lbqUkKwlh8=
  0
TEXT
  8
0
  6
CONTINUOUS
 10
0.000000
 20
-100.250000
 40
0.200000
  1
$PLWDWG4vZ4aLH4mBBscq/B8Ba9qFbEMh8RPAlDSn0zf/er/RTNecbJ1uLbTxP8QCVr8Psncvq5gDosAP0lv7h8FPHItUUv8+rx384Rl5vURsKRA+EaaOgpFfxfyPNu7j/4boVgXPa865I4kq0aRFwUfi8sEVMi20ibcdUuQ8z0/ZOskUY=
  0
TEXT
  8
0
  6
CONTINUOUS
 10
0.000000
 20
-100.500000
 40
0.200000
  1
$PLWDWGkclSU+ZK3ZluO3zQ+nofb4Nb4WnBD9tX0WIMxAdYrMNw1ghhgu8H8Wec6zS4QXsyNMAiJ4zufSHUOviIqeqV4fT69VAn7Roiy7D+HFSyYxMMunyq4vnZJ/0KiazEY+wI4rAmwI03/xg5/aAESmWBg1Pcxu3ljlTuCXXilw+F6LA=
  0
TEXT
  8
0
  6
CONTINUOUS
 10
0.000000
 20
-100.750000
 40
0.200000
  1
$PLWDWGO/zN84InzkI00WjNBjQIP+J85+vxdOwbbnrNCsMi926nli05nGiWdNeU3548f8+M37bUhVPt/W9cWXMfzLpIRta8GoA8UOj3ByHi/3pEfQBjZVZQOvQY5nPjXGJZYe/drj/7WubY3rtP92L62FkgoDTArKSUs92HM0HWMNSv3y8=
  0
TEXT
  8
0
  6
CONTINUOUS
 10
0.000000
 20
-101.000000
 40
0.200000
  1
$PLWDWGJf9AYVRsGWVl9HMjBZ4ACqMQjUdGrwKQfMho+5LLFsXSZg0dDZoOZ4fShcWIxw/xN2gADvwauaNbKKRCUluqDEO+B1HhKTScS/ztp7hXePxu+eD1TL7mTtnOk4oKjYqWQr1rbTMry08Zhr1pAw3OMPjkFUeM4AeXLWT4mqmc5+U=
  0
TEXT
  8
0
  6
CONTINUOUS
 10
0.000000
 20
-101.250000
 40
0.200000
  1
$PLWDWG9Qn+Gpti4LpSgCL2iK7K8VmOa2ADL6eQUIYnRkF83ot++sGj2nIb8Z7edEMc5ONggCtFiutlzhZCrWFUfH9AkYbClxyOLx95MNVAn+EWg6DdVJFK6e6NEb3rVItViNxgIre0t4upNjD8/gMy3nsbZeDNV4MPysLV73EeRfIHW6c=
  0
TEXT
  8
0
  6
CONTINUOUS
 10
0.000000
 20
-101.500000
 40
0.200000
  1
$PLWDWGMVh84xrVYnSiH9EsadzVKQ5vkGsr+Qrs9gFxP2h9dvgeQcNDyMlFV+SgO4/PIW3t5iIAu+3WS0EQUXnIL4l3Ix3sLWSJJFe6tGlgsTI8m5/996jRxd3n4v5WlbdPmOuNjGX0kY+xMOHVLF2rPZDcy2wpLH5zO3B+hRqEfUGgNZY=
  0
TEXT
  8
0
  6
CONTINUOUS
 10
0.000000
 20
-101.750000
 40
0.200000
  1
$PLWDWGjaxbJGIeeX3JzaATZ8e682lkBWhbKak0+j1ykoPkanAonnWPnQylHTkUUu3Sd/yB5eslk2D6VvhfyLcL5NUB1kBipBqClWsxJgrs988hvaH2IlIG7GgSzlGcwDRe6K2cqdIIDrpvyJgBKmbu2UHZyIrDNWKZGnhwTS3O/zYwjFo=
  0
TEXT
  8
0
  6
CONTINUOUS
 10
0.000000
 20
-102.000000
 40
0.200000
  1
$PLWDWGw5dH3WEEe7QmohaGGtMSG07vP5d7Eq5N/ekk4x67er2s1OywuyWjEvI+OVTS+9A1CUtpDH63yRkL8L2do/XXbdqYu5NKqI6mA4xBX4+6EC7JNTomMRuO59PJH+6G1uFPaCz+mvIkCKRguiIjua3CVhrEgCzylItxC/JHXF676zM=
  0
TEXT
  8
0
  6
CONTINUOUS
 10
0.000000
 20
-102.250000
 40
0.200000
  1
$PLWDWGoJrFbjDjxCPwTO6oNQsjE8adDLyFQuTrUfWdAUNUAm1/F1XmQ++ZOPXS/EeyO3e2o3igs4DnM/t4t/0+wOZLeiWgdDnDJzZ9F1QeFh4wd28BVLYy5VIn67aPrcsiAXzZs8MTC62kisgjTh/50LuSscREW2WI+B/jhDIo6PIzPzo=
  0
TEXT
  8
0
  6
CONTINUOUS
 10
0.000000
 20
-102.500000
 40
0.200000
  1
$PLWDWGrjAMoMifBMjCdXA8dvpH0ccVYuHPVPgLhyFl4F2ysgld1B4hV4GOsDs54KYwdiHR2P4VQvSWpq9oYVM877iPMIX/9KzIlBs8FFpbG1RFVPZsXR+V/AYe3jjZXt5Tc8w5Trkkr3npB9X4hzhtJP9+LAGAvkn5fo1aEOPGvnFRr74=
  0
TEXT
  8
0
  6
CONTINUOUS
 10
0.000000
 20
-102.750000
 40
0.200000
  1
$PLWDWGlvXvDlI1pyLJ1Gg55CDguv0VhzPlQv5wZRNAXnAL2bb94DwKOwS6x//sy5fRVzmbA3ra7IWfDR0RkiCYgOQMKh8Gkah90lhni8LXp+PXzyF+lENkOqg8/21ToFuMFg6/OOrQnh3l/lWLutXQaHK5jST7pnJalgqnIyWub6RPK1E=
  0
TEXT
  8
0
  6
CONTINUOUS
 10
0.000000
 20
-103.000000
 40
0.200000
  1
$PLWDWG9ragNjtN7H5rr1jEyzB+AJY4Tl3z6YOyIJBepFjwWWucw+1vi4Uq2Z8CZB/2wI0sTgWm5fvKZdAuF16IYqOIjkdVeZEOiVIIJgjEMKlrcXmunsPekGKEqrST8jT986ygYXGkUMMBckHerpfEXlyszEkNYsxgNrZ+sIvrHUonqEQ=
  0
TEXT
  8
0
  6
CONTINUOUS
 10
0.000000
 20
-103.250000
 40
0.200000
  1
$PLWDWGNxWl/Ii3s2NOOhm+q4xfTxcTl7NtguBGHadGjH67RbQHCMCVjXHz7cZNOJku70v3vICvcXwziJXQut4ZpIGS+xg2mmgJEw3JkLlgSXJXy73LUnASH2OJafsdCnG6QsKd8X8y7+rdZcFe+eaaDCpG9Aagkuub9PfotNSJj0iwlt8=
  0
TEXT
  8
0
  6
CONTINUOUS
 10
0.000000
 20
-103.500000
 40
0.200000
  1
$PLWDWGWF3oQsN7hF1+YVST8PtR+2tM+KJ3vy4DMHw5WdzpOACRPyuvd1sLLm8mJFFxsJlaF//Ke32GtchhTEA7W368TR8Nfqij/MF3xGEU/WQ/s9VO+24V0r3vk9bwqD1qBBqD4ui0ATBM90lQ+/94cOWhqYtH2IVROtcxvA2mELXVMqc=
  0
TEXT
  8
0
  6
CONTINUOUS
 10
0.000000
 20
-103.750000
 40
0.200000
  1
$PLWDWGAm4knmTEpIN+e8vInSO33qBoqJijgTVnWm71otADmSDRdpAcKa+IKSis+RhLauFzwooIA9Sj+/mDK709oErnXp+rj85ngvTRzlhjPnaXt+1G6nYELwdATMR+gaOg4pGD8gYVqt2BKtYDCiHt35jOT9mg1EinNGHlS/pLH7U8UF8=
  0
TEXT
  8
0
  6
CONTINUOUS
 10
0.000000
 20
-104.000000
 40
0.200000
  1
$PLWDWGPmGUK2qXFLZZAgyaUarvsaC5eS/poDqCaz2GoZLcr8PcSj/Y9k9M396g4a4SjltHPjb8R6JtccIgs8lnGr68rLptZNgVpvjsI3rR7i891uZsUk7E7ap9Bh9SJJNX7A76m83E5L50+RDBtuofqWF7qebeKOcOrcmS+isgjGQfLJM=
  0
TEXT
  8
0
  6
CONTINUOUS
 10
0.000000
 20
-104.250000
 40
0.200000
  1
$PLWDWG7z84i1pU83pxBXJUGINaHKWkgYgor0R2nRuskW7TlIBB6chfekC7tHHhqoe6682XvSS/Yw25VchLNmfNpSBSZ1P2rswLDsnWpjPI/yS1E6P+gTX+EMf8MYc2sHYXw/22aU74QsQFODcvfBzkKvxGDjmsbOW8TMP3HhLuV3dMyFc=
  0
TEXT
  8
0
  6
CONTINUOUS
 10
0.000000
 20
-104.500000
 40
0.200000
  1
$PLWDWGO/cF3tGA39r+cwKKOLzZqTEdGjs5d8+tIlOCaG3Z5quoOCVUBI1ZB7QurBZAccMontN8jquxiDax5w+ivdJXk2AcScA5WNXA1eztElOmaSOpWNAu2h7PWExRCIpQGsbWZVl9Qf5hZwm/Bu0c+eLhBDtzi4m165rq7P63FQ038yk=
  0
TEXT
  8
0
  6
CONTINUOUS
 10
0.000000
 20
-104.750000
 40
0.200000
  1
$PLWDWGMVau96Pe2yFi/iYRO7tePjZMfa/3qeGXZG6i4YMKXqkh8e/1xKjb3QwXQiQjEGpRpyZ+yvsLGYohZBP3Cjn5bhjxsFHSVqVz0IsxkCTsY3VRa4qCSG6+U6dUaIVLjCkVExvKx/ajTC55YMdUo9UoJNjFFFzzP1TfQZIWYMpj5nI=
  0
TEXT
  8
0
  6
CONTINUOUS
 10
0.000000
 20
-105.000000
 40
0.200000
  1
$PLWDWGNrZDopsUsL7WSQnNEEDU+IzjzovZzq67OvKSWlBehLlIAR+SF/0u3NNeVDD+YcBd7IqQxLolnzEkiUrIQYQH3g9DACKdjiXaPVRZKyPbkvzJGqP2fx8yZFn83RrVWO6qIuRFybjuAVn7dxk+Zz5LdSTMfP0c1zGvLMoruOjf1wA=
  0
TEXT
  8
0
  6
CONTINUOUS
 10
0.000000
 20
-105.250000
 40
0.200000
  1
$PLWDWGDBHxZZmPSoIuTtgXVbojqj379AXBVle8Lhm3olKvXYLaH4Qn0ghW5ExyfQDpaGLdIxXPQHcluZ5gyFs3GXRBXJnr0/tDzgKY/87tF0OCHO60ogn2qeVlecFYA0Mqb2OOx3fnsoc96xc1BAmB+8SoPxfNVbEk4BFg82bakX5KkVQ=
  0
TEXT
  8
0
  6
CONTINUOUS
 10
0.000000
 20
-105.500000
 40
0.200000
  1
$PLWDWGnMIJ0FyWddE1lvbLLZKQlxZ530IYRvwUy4oHWgZknYePlKZdjVDu2uCRpdTyyo+zRPbNb0huryyKxB1bbusWLIFWNoJmhvmOd0WQ1XHXg3B/n7Ygmn+H29ZOksuKz+WbBJs9kGOwb3Ip9fhHxzycjrJ/8ruGSctWQzp0V/vcQpw=
  0
TEXT
  8
0
  6
CONTINUOUS
 10
0.000000
 20
-105.750000
 40
0.200000
  1
$PLWDWGqFpSTyDFJb9dObuD/9/AqED024W6DfVFuUAS2dIQcaV8+fkaGrswTB2jILPcS9dCsrNkCS9zNJOdFeJer7vfHzKTSrLzlUgkrFgdgnKetK8CoFjtT+HpwWGOBrCmLVHub3Ymg/esCICUyC5mmTVBVwbw8iB7qKNDWj7jogcxHis=
  0
TEXT
  8
0
  6
CONTINUOUS
 10
0.000000
 20
-106.000000
 40
0.200000
  1
$PLWDWG8cdZ6OwEwify/VGfIxh73cScJ612Xftoas0mJYT1UkxvkjJC/3jylq4X7OFfrzzpTHUcQUVvccZxvv7anvEdT4P/vimz07IgD8eHWP08jtj9a8Y+212PJ2+M01NkQSCUEXwU57fxXTLFmFe84DsSp52S1TahWkiZBX1bxo/ZPJk=
  0
TEXT
  8
0
  6
CONTINUOUS
 10
0.000000
 20
-106.250000
 40
0.200000
  1
$PLWDWGVkhj3VywQEiXj1e4labHACeRpaF3tTu3IhTkOAQa+Xv0pEL5Uc7bHK8UfjACR369ZqBOgRxrwIQ9XitLMAPZG8z4L6yo9W+aq6q7ALgCnWGx4zp6WTOFMVwPPscUzz33NmXjrZuZACrPmwbnNqsspMXhBwWiQIrwP29Ad1JDRZM=
  0
TEXT
  8
0
  6
CONTINUOUS
 10
0.000000
 20
-106.500000
 40
0.200000
  1
$PLWDWGOifBsUoDoNeOxBAzS1gvp8ESPWVz8ru9cBrCCs4D6gZ5rf4XwsVaeftMyO8QFCKa9K7nGJWvUXzzUe7gB3noLdXMxPVvJo+wL5ix46HPE6HJcOmz5xOx/60v4hr4k7xCxhNfQuDgjx0L0NFmib79ni+Kp0lxge6AwuZqLmzGZqE=
  0
TEXT
  8
0
  6
CONTINUOUS
 10
0.000000
 20
-106.750000
 40
0.200000
  1
$PLWDWGwayEYa+VuH0TtBjn0Btp+C9E0Swnx9ZM42Rdnz5b8nbpmUcWb+iYRsrU6ZZeIQUSHb+GsC/7di7GRYAB+8TYqXrUZZrBYJSdEzI7qDsUgIsC4fJirIcjnaUo1dNtTjzW9n2SZMYGCeo+sHMHhc6U9HiOEnWomrrWjlSIO+FTV/Y=
  0
TEXT
  8
0
  6
CONTINUOUS
 10
0.000000
 20
-107.000000
 40
0.200000
  1
$PLWDWGPMVshLTXducHIndgaWRxFKYIVpkehvbpBZ8Q2JovhQ4VxL7j4LfCBSOEPNeQSmwjC9Sxwcr/HOI5lv2y6lZGtAMmghCFTUkMl2znHlRdK1bEVM/DYEKbfg6oR63rKPsrAw8+CZ6H/KMKL9q74WeixVrOdYBiYB+hEEGe8/WDvWA=
  0
TEXT
  8
0
  6
CONTINUOUS
 10
0.000000
 20
-107.250000
 40
0.200000
  1
$PLWDWGDeFpfRYxhizeHvFnvgxZvnvlLCLR35/65c871ZtnKqZaWMdJRacPBjC9EldhSON88FTaQ84u4GcFnxHD+Hh+19xZGixTt1LrJ9mzyyt0tKDujYFxJrEX/Bt6j0e/7tdCZGe5EZiSJTpTr2D3N+Z/GUpNV7XjZyu4pU8GSsC89Dg=
  0
TEXT
  8
0
  6
CONTINUOUS
 10
0.000000
 20
-107.500000
 40
0.200000
  1
$PLWDWGW9fANFM4OojRWiQvcJIO7eoYb/no5WrGeiPJWcvdCx1UyCUButu2Ko/31tif+KHCEwG05g7xTbsUsCYv/0abDm7j57EprqxIqGTi2g2CBqF/j0V3TDMq0EP3i1NHMtP7FmloD+ChTgCL3btQlfO6+ZTiqfKNySrmeUR/jFHoXj0=
  0
TEXT
  8
0
  6
CONTINUOUS
 10
0.000000
 20
-107.750000
 40
0.200000
  1
$PLWDWGii6whMYwAYaPSW3OYIMahYrlb22tnDHTvIVAs7Smst0/KeWpinphWJL4yEpTOFuoXs3IdISIMIersXy6YAFKgdy+r+g8y0gHCBepo8GpQiu2IZ0Q6dRsF3P1IOT2tikGM5NgFexEr1rbWqwOnjsdYRS2lN2CGIZ3AGKLrnPxFhw=
  0
TEXT
  8
0
  6
CONTINUOUS
 10
0.000000
 20
-108.000000
 40
0.200000
  1
$PLWDWGnY4KaDzHgALjRvtAugYqqW+VD89mWgUCghSHAObVA+50Gepq0pnSv9i4gRNjOoJqQ13HuxHVpTL4BPFczAxRS+qiireq4ce2AX91xl0zLHL41VgMlHxCKiYTQdmLEpsKeRYNdlhrBywXgESZPgqtUXMrsHjdG7GuR8GVYRVee/8=
  0
TEXT
  8
0
  6
CONTINUOUS
 10
0.000000
 20
-108.250000
 40
0.200000
  1
$PLWDWG9Krvtaspv99mnO1AijCyMtyTNfYvol6yfHtng5SC5W/KnO5h04BjbzL4yreptVsU4vsyVBep
  0
ENDBLK
  8
0
  0
ENDSEC
  0
SECTION
  2
ENTITIES
  0
SOLID
  8
14
  6
CONTINUOUS
 10
13.331763
 20
46.944097
 11
13.331763
 21
46.444097
 12
15.031763
 22
46.444097
 13
15.031763
 23
46.444097
  0
SOLID
  8
14
  6
CONTINUOUS
 10
13.331763
 20
46.944097
 11
15.031763
 21
46.444097
 12
15.031763
 22
46.444097
 13
15.031763
 23
46.444097
  0
SOLID
  8
14
  6
CONTINUOUS
 10
13.331763
 20
46.944097
 11
15.031763
 21
46.444097
 12
13.331763
 22
46.944097
 13
13.331763
 23
46.944097
  0
SOLID
  8
14
  6
CONTINUOUS
 10
13.331763
 20
46.944097
 11
15.031763
 21
46.444097
 12
15.031763
 22
46.944097
 13
15.031763
 23
46.944097
  0
SOLID
  8
14
  6
CONTINUOUS
 10
13.331763
 20
46.944097
 11
15.031763
 21
46.944097
 12
15.031763
 22
46.944097
 13
15.031763
 23
46.944097
  0
SOLID
  8
14
  6
CONTINUOUS
 10
13.331763
 20
46.944097
 11
15.031763
 21
46.944097
 12
13.331763
 22
46.944097
 13
13.331763
 23
46.944097
  0
SOLID
  8
14
  6
CONTINUOUS
 10
23.092628
 20
44.444097
 11
23.632628
 21
44.444097
 12
23.632628
 22
46.944097
 13
23.632628
 23
46.944097
  0
SOLID
  8
14
  6
CONTINUOUS
 10
23.092628
 20
44.444097
 11
23.632628
 21
46.944097
 12
23.632628
 22
46.944097
 13
23.632628
 23
46.944097
  0
SOLID
  8
14
  6
CONTINUOUS
 10
23.092628
 20
44.444097
 11
23.632628
 21
46.944097
 12
23.092628
 22
44.444097
 13
23.092628
 23
44.444097
  0
SOLID
  8
14
  6
CONTINUOUS
 10
23.092628
 20
44.444097
 11
23.632628
 21
46.944097
 12
23.092628
 22
46.944097
 13
23.092628
 23
46.944097
  0
SOLID
  8
14
  6
CONTINUOUS
 10
23.092628
 20
44.444097
 11
23.092628
 21
46.944097
 12
23.092628
 22
46.944097
 13
23.092628
 23
46.944097
  0
SOLID
  8
14
  6
CONTINUOUS
 10
23.092628
 20
44.444097
 11
23.092628
 21
46.944097
 12
23.092628
 22
44.444097
 13
23.092628
 23
44.444097
  0
SOLID
  8
14
  6
CONTINUOUS
 10
76.691052
 20
44.444097
 11
77.231052
 21
44.444097
 12
77.231052
 22
46.944097
 13
77.231052
 23
46.944097
  0
SOLID
  8
14
  6
CONTINUOUS
 10
76.691052
 20
44.444097
 11
77.231052
 21
46.944097
 12
77.231052
 22
46.944097
 13
77.231052
 23
46.944097
  0
SOLID
  8
14
  6
CONTINUOUS
 10
76.691052
 20
44.444097
 11
77.231052
 21
46.944097
 12
76.691052
 22
44.444097
 13
76.691052
 23
44.444097
  0
SOLID
  8
14
  6
CONTINUOUS
 10
76.691052
 20
44.444097
 11
77.231052
 21
46.944097
 12
76.691052
 22
46.944097
 13
76.691052
 23
46.944097
  0
SOLID
  8
14
  6
CONTINUOUS
 10
76.691052
 20
44.444097
 11
76.691052
 21
46.944097
 12
76.691052
 22
46.944097
 13
76.691052
 23
46.944097
  0
SOLID
  8
14
  6
CONTINUOUS
 10
76.691052
 20
44.444097
 11
76.691052
 21
46.944097
 12
76.691052
 22
44.444097
 13
76.691052
 23
44.444097
  0
SOLID
  8
14
  6
CONTINUOUS
 10
86.991917
 20
46.444097
 11
86.991917
 21
46.944097
 12
85.291917
 22
46.944097
 13
85.291917
 23
46.944097
  0
SOLID
  8
14
  6
CONTINUOUS
 10
86.991917
 20
46.444097
 11
85.291917
 21
46.944097
 12
85.291917
 22
46.944097
 13
85.291917
 23
46.944097
  0
SOLID
  8
14
  6
CONTINUOUS
 10
86.991917
 20
46.444097
 11
85.291917
 21
46.944097
 12
86.991917
 22
46.444097
 13
86.991917
 23
46.444097
  0
SOLID
  8
14
  6
CONTINUOUS
 10
86.991917
 20
46.444097
 11
85.291917
 21
46.944097
 12
85.291917
 22
46.444097
 13
85.291917
 23
46.444097
  0
SOLID
  8
14
  6
CONTINUOUS
 10
86.991917
 20
46.444097
 11
85.291917
 21
46.444097
 12
85.291917
 22
46.444097
 13
85.291917
 23
46.444097
  0
SOLID
  8
14
  6
CONTINUOUS
 10
86.991917
 20
46.444097
 11
85.291917
 21
46.444097
 12
86.991917
 22
46.444097
 13
86.991917
 23
46.444097
  0
SOLID
  8
14
  6
CONTINUOUS
 10
34.361840
 20
45.144097
 11
33.861840
 21
45.144097
 12
33.861840
 22
43.344097
 13
33.861840
 23
43.344097
  0
SOLID
  8
14
  6
CONTINUOUS
 10
34.361840
 20
45.144097
 11
33.861840
 21
43.344097
 12
33.861840
 22
43.344097
 13
33.861840
 23
43.344097
  0
SOLID
  8
14
  6
CONTINUOUS
 10
34.361840
 20
45.144097
 11
33.861840
 21
43.344097
 12
34.361840
 22
45.144097
 13
34.361840
 23
45.144097
  0
SOLID
  8
14
  6
CONTINUOUS
 10
34.361840
 20
45.144097
 11
33.861840
 21
43.344097
 12
34.361840
 22
43.344097
 13
34.361840
 23
43.344097
  0
SOLID
  8
14
  6
CONTINUOUS
 10
34.361840
 20
45.144097
 11
34.361840
 21
43.344097
 12
34.361840
 22
43.344097
 13
34.361840
 23
43.344097
  0
SOLID
  8
14
  6
CONTINUOUS
 10
34.361840
 20
45.144097
 11
34.361840
 21
43.344097
 12
34.361840
 22
45.144097
 13
34.361840
 23
45.144097
  0
SOLID
  8
14
  6
CONTINUOUS
 10
65.961840
 20
43.344097
 11
66.461840
 21
43.344097
 12
66.461840
 22
45.144097
 13
66.461840
 23
45.144097
  0
SOLID
  8
14
  6
CONTINUOUS
 10
65.961840
 20
43.344097
 11
66.461840
 21
45.144097
 12
66.461840
 22
45.144097
 13
66.461840
 23
45.144097
  0
SOLID
  8
14
  6
CONTINUOUS
 10
65.961840
 20
43.344097
 11
66.461840
 21
45.144097
 12
65.961840
 22
43.344097
 13
65.961840
 23
43.344097
  0
SOLID
  8
14
  6
CONTINUOUS
 10
65.961840
 20
43.344097
 11
66.461840
 21
45.144097
 12
65.961840
 22
45.144097
 13
65.961840
 23
45.144097
  0
SOLID
  8
14
  6
CONTINUOUS
 10
65.961840
 20
43.344097
 11
65.961840
 21
45.144097
 12
65.961840
 22
45.144097
 13
65.961840
 23
45.144097
  0
SOLID
  8
14
  6
CONTINUOUS
 10
65.961840
 20
43.344097
 11
65.961840
 21
45.144097
 12
65.961840
 22
43.344097
 13
65.961840
 23
43.344097
  0
SOLID
  8
14
  6
CONTINUOUS
 10
10.535490
 20
39.244097
 11
10.535490
 21
38.744097
 12
11.935490
 22
38.744097
 13
11.935490
 23
38.744097
  0
SOLID
  8
14
  6
CONTINUOUS
 10
10.535490
 20
39.244097
 11
11.935490
 21
38.744097
 12
11.935490
 22
38.744097
 13
11.935490
 23
38.744097
  0
SOLID
  8
14
  6
CONTINUOUS
 10
10.535490
 20
39.244097
 11
11.935490
 21
38.744097
 12
10.535490
 22
39.244097
 13
10.535490
 23
39.244097
  0
SOLID
  8
14
  6
CONTINUOUS
 10
10.535490
 20
39.244097
 11
11.935490
 21
38.744097
 12
11.935490
 22
39.244097
 13
11.935490
 23
39.244097
  0
SOLID
  8
14
  6
CONTINUOUS
 10
10.535490
 20
39.244097
 11
11.935490
 21
39.244097
 12
11.935490
 22
39.244097
 13
11.935490
 23
39.244097
  0
SOLID
  8
14
  6
CONTINUOUS
 10
10.535490
 20
39.244097
 11
11.935490
 21
39.244097
 12
10.535490
 22
39.244097
 13
10.535490
 23
39.244097
  0
SOLID
  8
14
  6
CONTINUOUS
 10
89.788190
 20
38.744097
 11
89.788190
 21
39.244097
 12
88.388190
 22
39.244097
 13
88.388190
 23
39.244097
  0
SOLID
  8
14
  6
CONTINUOUS
 10
89.788190
 20
38.744097
 11
88.388190
 21
39.244097
 12
88.388190
 22
39.244097
 13
88.388190
 23
39.244097
  0
SOLID
  8
14
  6
CONTINUOUS
 10
89.788190
 20
38.744097
 11
88.388190
 21
39.244097
 12
89.788190
 22
38.744097
 13
89.788190
 23
38.744097
  0
SOLID
  8
14
  6
CONTINUOUS
 10
89.788190
 20
38.744097
 11
88.388190
 21
39.244097
 12
88.388190
 22
38.744097
 13
88.388190
 23
38.744097
  0
SOLID
  8
14
  6
CONTINUOUS
 10
89.788190
 20
38.744097
 11
88.388190
 21
38.744097
 12
88.388190
 22
38.744097
 13
88.388190
 23
38.744097
  0
SOLID
  8
14
  6
CONTINUOUS
 10
89.788190
 20
38.744097
 11
88.388190
 21
38.744097
 12
89.788190
 22
38.744097
 13
89.788190
 23
38.744097
  0
SOLID
  8
14
  6
CONTINUOUS
 10
22.416089
 20
36.944097
 11
22.916089
 21
36.944097
 12
22.916089
 22
39.144097
 13
22.916089
 23
39.144097
  0
SOLID
  8
14
  6
CONTINUOUS
 10
22.416089
 20
36.944097
 11
22.916089
 21
39.144097
 12
22.916089
 22
39.144097
 13
22.916089
 23
39.144097
  0
SOLID
  8
14
  6
CONTINUOUS
 10
22.416089
 20
36.944097
 11
22.916089
 21
39.144097
 12
22.416089
 22
36.944097
 13
22.416089
 23
36.944097
  0
SOLID
  8
14
  6
CONTINUOUS
 10
22.416089
 20
36.944097
 11
22.916089
 21
39.144097
 12
22.416089
 22
39.144097
 13
22.416089
 23
39.144097
  0
SOLID
  8
14
  6
CONTINUOUS
 10
22.416089
 20
36.944097
 11
22.416089
 21
39.144097
 12
22.416089
 22
39.144097
 13
22.416089
 23
39.144097
  0
SOLID
  8
14
  6
CONTINUOUS
 10
22.416089
 20
36.944097
 11
22.416089
 21
39.144097
 12
22.416089
 22
36.944097
 13
22.416089
 23
36.944097
  0
SOLID
  8
14
  6
CONTINUOUS
 10
77.407591
 20
36.944097
 11
77.907591
 21
36.944097
 12
77.907591
 22
39.144097
 13
77.907591
 23
39.144097
  0
SOLID
  8
14
  6
CONTINUOUS
 10
77.407591
 20
36.944097
 11
77.907591
 21
39.144097
 12
77.907591
 22
39.144097
 13
77.907591
 23
39.144097
  0
SOLID
  8
14
  6
CONTINUOUS
 10
77.407591
 20
36.944097
 11
77.907591
 21
39.144097
 12
77.407591
 22
36.944097
 13
77.407591
 23
36.944097
  0
SOLID
  8
14
  6
CONTINUOUS
 10
77.407591
 20
36.944097
 11
77.907591
 21
39.144097
 12
77.407591
 22
39.144097
 13
77.407591
 23
39.144097
  0
SOLID
  8
14
  6
CONTINUOUS
 10
77.407591
 20
36.944097
 11
77.407591
 21
39.144097
 12
77.407591
 22
39.144097
 13
77.407591
 23
39.144097
  0
SOLID
  8
14
  6
CONTINUOUS
 10
77.407591
 20
36.944097
 11
77.407591
 21
39.144097
 12
77.407591
 22
36.944097
 13
77.407591
 23
36.944097
  0
SOLID
  8
14
  6
CONTINUOUS
 10
16.316089
 20
32.944097
 11
16.316089
 21
33.444097
 12
14.716089
 22
33.444097
 13
14.716089
 23
33.444097
  0
SOLID
  8
14
  6
CONTINUOUS
 10
16.316089
 20
32.944097
 11
14.716089
 21
33.444097
 12
14.716089
 22
33.444097
 13
14.716089
 23
33.444097
  0
SOLID
  8
14
  6
CONTINUOUS
 10
16.316089
 20
32.944097
 11
14.716089
 21
33.444097
 12
16.316089
 22
32.944097
 13
16.316089
 23
32.944097
  0
SOLID
  8
14
  6
CONTINUOUS
 10
16.316089
 20
32.944097
 11
14.716089
 21
33.444097
 12
14.716089
 22
32.944097
 13
14.716089
 23
32.944097
  0
SOLID
  8
14
  6
CONTINUOUS
 10
16.316089
 20
32.944097
 11
14.716089
 21
32.944097
 12
14.716089
 22
32.944097
 13
14.716089
 23
32.944097
  0
SOLID
  8
14
  6
CONTINUOUS
 10
16.316089
 20
32.944097
 11
14.716089
 21
32.944097
 12
16.316089
 22
32.944097
 13
16.316089
 23
32.944097
  0
SOLID
  8
14
  6
CONTINUOUS
 10
30.161840
 20
32.724097
 11
30.161840
 21
33.324097
 12
27.761840
 22
33.324097
 13
27.761840
 23
33.324097
  0
SOLID
  8
14
  6
CONTINUOUS
 10
30.161840
 20
32.724097
 11
27.761840
 21
33.324097
 12
27.761840
 22
33.324097
 13
27.761840
 23
33.324097
  0
SOLID
  8
14
  6
CONTINUOUS
 10
30.161840
 20
32.724097
 11
27.761840
 21
33.324097
 12
30.161840
 22
32.724097
 13
30.161840
 23
32.724097
  0
SOLID
  8
14
  6
CONTINUOUS
 10
30.161840
 20
32.724097
 11
27.761840
 21
33.324097
 12
27.761840
 22
32.724097
 13
27.761840
 23
32.724097
  0
SOLID
  8
14
  6
CONTINUOUS
 10
30.161840
 20
32.724097
 11
27.761840
 21
32.724097
 12
27.761840
 22
32.724097
 13
27.761840
 23
32.724097
  0
SOLID
  8
14
  6
CONTINUOUS
 10
30.161840
 20
32.724097
 11
27.761840
 21
32.724097
 12
30.161840
 22
32.724097
 13
30.161840
 23
32.724097
  0
SOLID
  8
14
  6
CONTINUOUS
 10
70.181840
 20
33.324097
 11
70.181840
 21
32.724097
 12
72.581840
 22
32.724097
 13
72.581840
 23
32.724097
  0
SOLID
  8
14
  6
CONTINUOUS
 10
70.181840
 20
33.324097
 11
72.581840
 21
32.724097
 12
72.581840
 22
32.724097
 13
72.581840
 23
32.724097
  0
SOLID
  8
14
  6
CONTINUOUS
 10
70.181840
 20
33.324097
 11
72.581840
 21
32.724097
 12
70.181840
 22
33.324097
 13
70.181840
 23
33.324097
  0
SOLID
  8
14
  6
CONTINUOUS
 10
70.181840
 20
33.324097
 11
72.581840
 21
32.724097
 12
72.581840
 22
33.324097
 13
72.581840
 23
33.324097
  0
SOLID
  8
14
  6
CONTINUOUS
 10
70.181840
 20
33.324097
 11
72.581840
 21
33.324097
 12
72.581840
 22
33.324097
 13
72.581840
 23
33.324097
  0
SOLID
  8
14
  6
CONTINUOUS
 10
70.181840
 20
33.324097
 11
72.581840
 21
33.324097
 12
70.181840
 22
33.324097
 13
70.181840
 23
33.324097
  0
SOLID
  8
14
  6
CONTINUOUS
 10
85.607592
 20
32.944097
 11
85.607592
 21
33.444097
 12
84.007592
 22
33.444097
 13
84.007592
 23
33.444097
  0
SOLID
  8
14
  6
CONTINUOUS
 10
85.607592
 20
32.944097
 11
84.007592
 21
33.444097
 12
84.007592
 22
33.444097
 13
84.007592
 23
33.444097
  0
SOLID
  8
14
  6
CONTINUOUS
 10
85.607592
 20
32.944097
 11
84.007592
 21
33.444097
 12
85.607592
 22
32.944097
 13
85.607592
 23
32.944097
  0
SOLID
  8
14
  6
CONTINUOUS
 10
85.607592
 20
32.944097
 11
84.007592
 21
33.444097
 12
84.007592
 22
32.944097
 13
84.007592
 23
32.944097
  0
SOLID
  8
14
  6
CONTINUOUS
 10
85.607592
 20
32.944097
 11
84.007592
 21
32.944097
 12
84.007592
 22
32.944097
 13
84.007592
 23
32.944097
  0
SOLID
  8
14
  6
CONTINUOUS
 10
85.607592
 20
32.944097
 11
84.007592
 21
32.944097
 12
85.607592
 22
32.944097
 13
85.607592
 23
32.944097
  0
SOLID
  8
14
  6
CONTINUOUS
 10
41.861840
 20
32.468530
 11
41.361840
 21
32.468530
 12
41.361840
 22
30.868530
 13
41.361840
 23
30.868530
  0
SOLID
  8
14
  6
CONTINUOUS
 10
41.861840
 20
32.468530
 11
41.361840
 21
30.868530
 12
41.361840
 22
30.868530
 13
41.361840
 23
30.868530
  0
SOLID
  8
14
  6
CONTINUOUS
 10
41.861840
 20
32.468530
 11
41.361840
 21
30.868530
 12
41.861840
 22
32.468530
 13
41.861840
 23
32.468530
  0
SOLID
  8
14
  6
CONTINUOUS
 10
41.861840
 20
32.468530
 11
41.361840
 21
30.868530
 12
41.861840
 22
30.868530
 13
41.861840
 23
30.868530
  0
SOLID
  8
14
  6
CONTINUOUS
 10
41.861840
 20
32.468530
 11
41.861840
 21
30.868530
 12
41.861840
 22
30.868530
 13
41.861840
 23
30.868530
  0
SOLID
  8
14
  6
CONTINUOUS
 10
41.861840
 20
32.468530
 11
41.861840
 21
30.868530
 12
41.861840
 22
32.468530
 13
41.861840
 23
32.468530
  0
SOLID
  8
14
  6
CONTINUOUS
 10
53.201840
 20
31.968530
 11
53.201840
 21
32.468530
 12
51.601840
 22
32.468530
 13
51.601840
 23
32.468530
  0
SOLID
  8
14
  6
CONTINUOUS
 10
53.201840
 20
31.968530
 11
51.601840
 21
32.468530
 12
51.601840
 22
32.468530
 13
51.601840
 23
32.468530
  0
SOLID
  8
14
  6
CONTINUOUS
 10
53.201840
 20
31.968530
 11
51.601840
 21
32.468530
 12
53.201840
 22
31.968530
 13
53.201840
 23
31.968530
  0
SOLID
  8
14
  6
CONTINUOUS
 10
53.201840
 20
31.968530
 11
51.601840
 21
32.468530
 12
51.601840
 22
31.968530
 13
51.601840
 23
31.968530
  0
SOLID
  8
14
  6
CONTINUOUS
 10
53.201840
 20
31.968530
 11
51.601840
 21
31.968530
 12
51.601840
 22
31.968530
 13
51.601840
 23
31.968530
  0
SOLID
  8
14
  6
CONTINUOUS
 10
53.201840
 20
31.968530
 11
51.601840
 21
31.968530
 12
53.201840
 22
31.968530
 13
53.201840
 23
31.968530
  0
SOLID
  8
14
  6
CONTINUOUS
 10
36.961840
 20
26.068530
 11
37.461840
 21
26.068530
 12
37.461840
 22
31.668530
 13
37.461840
 23
31.668530
  0
SOLID
  8
14
  6
CONTINUOUS
 10
36.961840
 20
26.068530
 11
37.461840
 21
31.668530
 12
37.461840
 22
31.668530
 13
37.461840
 23
31.668530
  0
SOLID
  8
14
  6
CONTINUOUS
 10
36.961840
 20
26.068530
 11
37.461840
 21
31.668530
 12
36.961840
 22
26.068530
 13
36.961840
 23
26.068530
  0
SOLID
  8
14
  6
CONTINUOUS
 10
36.961840
 20
26.068530
 11
37.461840
 21
31.668530
 12
36.961840
 22
31.668530
 13
36.961840
 23
31.668530
  0
SOLID
  8
14
  6
CONTINUOUS
 10
36.961840
 20
26.068530
 11
36.961840
 21
31.668530
 12
36.961840
 22
31.668530
 13
36.961840
 23
31.668530
  0
SOLID
  8
14
  6
CONTINUOUS
 10
36.961840
 20
26.068530
 11
36.961840
 21
31.668530
 12
36.961840
 22
26.068530
 13
36.961840
 23
26.068530
  0
SOLID
  8
14
  6
CONTINUOUS
 10
62.861840
 20
26.068530
 11
63.361840
 21
26.068530
 12
63.361840
 22
31.668530
 13
63.361840
 23
31.668530
  0
SOLID
  8
14
  6
CONTINUOUS
 10
62.861840
 20
26.068530
 11
63.361840
 21
31.668530
 12
63.361840
 22
31.668530
 13
63.361840
 23
31.668530
  0
SOLID
  8
14
  6
CONTINUOUS
 10
62.861840
 20
26.068530
 11
63.361840
 21
31.668530
 12
62.861840
 22
26.068530
 13
62.861840
 23
26.068530
  0
SOLID
  8
14
  6
CONTINUOUS
 10
62.861840
 20
26.068530
 11
63.361840
 21
31.668530
 12
62.861840
 22
31.668530
 13
62.861840
 23
31.668530
  0
SOLID
  8
14
  6
CONTINUOUS
 10
62.861840
 20
26.068530
 11
62.861840
 21
31.668530
 12
62.861840
 22
31.668530
 13
62.861840
 23
31.668530
  0
SOLID
  8
14
  6
CONTINUOUS
 10
62.861840
 20
26.068530
 11
62.861840
 21
31.668530
 12
62.861840
 22
26.068530
 13
62.861840
 23
26.068530
  0
SOLID
  8
14
  6
CONTINUOUS
 10
43.761840
 20
26.068530
 11
43.761840
 21
26.568530
 12
41.361840
 22
26.568530
 13
41.361840
 23
26.568530
  0
SOLID
  8
14
  6
CONTINUOUS
 10
43.761840
 20
26.068530
 11
41.361840
 21
26.568530
 12
41.361840
 22
26.568530
 13
41.361840
 23
26.568530
  0
SOLID
  8
14
  6
CONTINUOUS
 10
43.761840
 20
26.068530
 11
41.361840
 21
26.568530
 12
43.761840
 22
26.068530
 13
43.761840
 23
26.068530
  0
SOLID
  8
14
  6
CONTINUOUS
 10
43.761840
 20
26.068530
 11
41.361840
 21
26.568530
 12
41.361840
 22
26.068530
 13
41.361840
 23
26.068530
  0
SOLID
  8
14
  6
CONTINUOUS
 10
43.761840
 20
26.068530
 11
41.361840
 21
26.068530
 12
41.361840
 22
26.068530
 13
41.361840
 23
26.068530
  0
SOLID
  8
14
  6
CONTINUOUS
 10
43.761840
 20
26.068530
 11
41.361840
 21
26.068530
 12
43.761840
 22
26.068530
 13
43.761840
 23
26.068530
  0
SOLID
  8
14
  6
CONTINUOUS
 10
53.621840
 20
26.608530
 11
53.621840
 21
26.068530
 12
56.021840
 22
26.068530
 13
56.021840
 23
26.068530
  0
SOLID
  8
14
  6
CONTINUOUS
 10
53.621840
 20
26.608530
 11
56.021840
 21
26.068530
 12
56.021840
 22
26.068530
 13
56.021840
 23
26.068530
  0
SOLID
  8
14
  6
CONTINUOUS
 10
53.621840
 20
26.608530
 11
56.021840
 21
26.068530
 12
53.621840
 22
26.608530
 13
53.621840
 23
26.608530
  0
SOLID
  8
14
  6
CONTINUOUS
 10
53.621840
 20
26.608530
 11
56.021840
 21
26.068530
 12
56.021840
 22
26.608530
 13
56.021840
 23
26.608530
  0
SOLID
  8
14
  6
CONTINUOUS
 10
53.621840
 20
26.608530
 11
56.021840
 21
26.608530
 12
56.021840
 22
26.608530
 13
56.021840
 23
26.608530
  0
SOLID
  8
14
  6
CONTINUOUS
 10
53.621840
 20
26.608530
 11
56.021840
 21
26.608530
 12
53.621840
 22
26.608530
 13
53.621840
 23
26.608530
  0
SOLID
  8
14
  6
CONTINUOUS
 10
28.561840
 20
21.468530
 11
29.161840
 21
21.468530
 12
29.161840
 22
23.468530
 13
29.161840
 23
23.468530
  0
SOLID
  8
14
  6
CONTINUOUS
 10
28.561840
 20
21.468530
 11
29.161840
 21
23.468530
 12
29.161840
 22
23.468530
 13
29.161840
 23
23.468530
  0
SOLID
  8
14
  6
CONTINUOUS
 10
28.561840
 20
21.468530
 11
29.161840
 21
23.468530
 12
28.561840
 22
21.468530
 13
28.561840
 23
21.468530
  0
SOLID
  8
14
  6
CONTINUOUS
 10
28.561840
 20
21.468530
 11
29.161840
 21
23.468530
 12
28.561840
 22
23.468530
 13
28.561840
 23
23.468530
  0
SOLID
  8
14
  6
CONTINUOUS
 10
28.561840
 20
21.468530
 11
28.561840
 21
23.468530
 12
28.561840
 22
23.468530
 13
28.561840
 23
23.468530
  0
SOLID
  8
14
  6
CONTINUOUS
 10
28.561840
 20
21.468530
 11
28.561840
 21
23.468530
 12
28.561840
 22
21.468530
 13
28.561840
 23
21.468530
  0
SOLID
  8
14
  6
CONTINUOUS
 10
33.981840
 20
21.068530
 11
34.581840
 21
21.068530
 12
34.581840
 22
23.468530
 13
34.581840
 23
23.468530
  0
SOLID
  8
14
  6
CONTINUOUS
 10
33.981840
 20
21.068530
 11
34.581840
 21
23.468530
 12
34.581840
 22
23.468530
 13
34.581840
 23
23.468530
  0
SOLID
  8
14
  6
CONTINUOUS
 10
33.981840
 20
21.068530
 11
34.581840
 21
23.468530
 12
33.981840
 22
21.068530
 13
33.981840
 23
21.068530
  0
SOLID
  8
14
  6
CONTINUOUS
 10
33.981840
 20
21.068530
 11
34.581840
 21
23.468530
 12
33.981840
 22
23.468530
 13
33.981840
 23
23.468530
  0
SOLID
  8
14
  6
CONTINUOUS
 10
33.981840
 20
21.068530
 11
33.981840
 21
23.468530
 12
33.981840
 22
23.468530
 13
33.981840
 23
23.468530
  0
SOLID
  8
14
  6
CONTINUOUS
 10
33.981840
 20
21.068530
 11
33.981840
 21
23.468530
 12
33.981840
 22
21.068530
 13
33.981840
 23
21.068530
  0
SOLID
  8
14
  6
CONTINUOUS
 10
65.741840
 20
21.068530
 11
66.341840
 21
21.068530
 12
66.341840
 22
23.468530
 13
66.341840
 23
23.468530
  0
SOLID
  8
14
  6
CONTINUOUS
 10
65.741840
 20
21.068530
 11
66.341840
 21
23.468530
 12
66.341840
 22
23.468530
 13
66.341840
 23
23.468530
  0
SOLID
  8
14
  6
CONTINUOUS
 10
65.741840
 20
21.068530
 11
66.341840
 21
23.468530
 12
65.741840
 22
21.068530
 13
65.741840
 23
21.068530
  0
SOLID
  8
14
  6
CONTINUOUS
 10
65.741840
 20
21.068530
 11
66.341840
 21
23.468530
 12
65.741840
 22
23.468530
 13
65.741840
 23
23.468530
  0
SOLID
  8
14
  6
CONTINUOUS
 10
65.741840
 20
21.068530
 11
65.741840
 21
23.468530
 12
65.741840
 22
23.468530
 13
65.741840
 23
23.468530
  0
SOLID
  8
14
  6
CONTINUOUS
 10
65.741840
 20
21.068530
 11
65.741840
 21
23.468530
 12
65.741840
 22
21.068530
 13
65.741840
 23
21.068530
  0
SOLID
  8
14
  6
CONTINUOUS
 10
71.161840
 20
21.468530
 11
71.761840
 21
21.468530
 12
71.761840
 22
23.468530
 13
71.761840
 23
23.468530
  0
SOLID
  8
14
  6
CONTINUOUS
 10
71.161840
 20
21.468530
 11
71.761840
 21
23.468530
 12
71.761840
 22
23.468530
 13
71.761840
 23
23.468530
  0
SOLID
  8
14
  6
CONTINUOUS
 10
71.161840
 20
21.468530
 11
71.761840
 21
23.468530
 12
71.161840
 22
21.468530
 13
71.161840
 23
21.468530
  0
SOLID
  8
14
  6
CONTINUOUS
 10
71.161840
 20
21.468530
 11
71.761840
 21
23.468530
 12
71.161840
 22
23.468530
 13
71.161840
 23
23.468530
  0
SOLID
  8
14
  6
CONTINUOUS
 10
71.161840
 20
21.468530
 11
71.161840
 21
23.468530
 12
71.161840
 22
23.468530
 13
71.161840
 23
23.468530
  0
SOLID
  8
14
  6
CONTINUOUS
 10
71.161840
 20
21.468530
 11
71.161840
 21
23.468530
 12
71.161840
 22
21.468530
 13
71.161840
 23
21.468530
  0
SOLID
  8
14
  6
CONTINUOUS
 10
18.961840
 20
18.544097
 11
18.961840
 21
17.944097
 12
20.561840
 22
17.944097
 13
20.561840
 23
17.944097
  0
SOLID
  8
14
  6
CONTINUOUS
 10
18.961840
 20
18.544097
 11
20.561840
 21
17.944097
 12
20.561840
 22
17.944097
 13
20.561840
 23
17.944097
  0
SOLID
  8
14
  6
CONTINUOUS
 10
18.961840
 20
18.544097
 11
20.561840
 21
17.944097
 12
18.961840
 22
18.544097
 13
18.961840
 23
18.544097
  0
SOLID
  8
14
  6
CONTINUOUS
 10
18.961840
 20
18.544097
 11
20.561840
 21
17.944097
 12
20.561840
 22
18.544097
 13
20.561840
 23
18.544097
  0
SOLID
  8
14
  6
CONTINUOUS
 10
18.961840
 20
18.544097
 11
20.561840
 21
18.544097
 12
20.561840
 22
18.544097
 13
20.561840
 23
18.544097
  0
SOLID
  8
14
  6
CONTINUOUS
 10
18.961840
 20
18.544097
 11
20.561840
 21
18.544097
 12
18.961840
 22
18.544097
 13
18.961840
 23
18.544097
  0
SOLID
  8
14
  6
CONTINUOUS
 10
46.961840
 20
17.538530
 11
46.961840
 21
18.138530
 12
44.561840
 22
18.138530
 13
44.561840
 23
18.138530
  0
SOLID
  8
14
  6
CONTINUOUS
 10
46.961840
 20
17.538530
 11
44.561840
 21
18.138530
 12
44.561840
 22
18.138530
 13
44.561840
 23
18.138530
  0
SOLID
  8
14
  6
CONTINUOUS
 10
46.961840
 20
17.538530
 11
44.561840
 21
18.138530
 12
46.961840
 22
17.538530
 13
46.961840
 23
17.538530
  0
SOLID
  8
14
  6
CONTINUOUS
 10
46.961840
 20
17.538530
 11
44.561840
 21
18.138530
 12
44.561840
 22
17.538530
 13
44.561840
 23
17.538530
  0
SOLID
  8
14
  6
CONTINUOUS
 10
46.961840
 20
17.538530
 11
44.561840
 21
17.538530
 12
44.561840
 22
17.538530
 13
44.561840
 23
17.538530
  0
SOLID
  8
14
  6
CONTINUOUS
 10
46.961840
 20
17.538530
 11
44.561840
 21
17.538530
 12
46.961840
 22
17.538530
 13
46.961840
 23
17.538530
  0
SOLID
  8
14
  6
CONTINUOUS
 10
55.761840
 20
17.538530
 11
55.761840
 21
18.138530
 12
53.361840
 22
18.138530
 13
53.361840
 23
18.138530
  0
SOLID
  8
14
  6
CONTINUOUS
 10
55.761840
 20
17.538530
 11
53.361840
 21
18.138530
 12
53.361840
 22
18.138530
 13
53.361840
 23
18.138530
  0
SOLID
  8
14
  6
CONTINUOUS
 10
55.761840
 20
17.538530
 11
53.361840
 21
18.138530
 12
55.761840
 22
17.538530
 13
55.761840
 23
17.538530
  0
SOLID
  8
14
  6
CONTINUOUS
 10
55.761840
 20
17.538530
 11
53.361840
 21
18.138530
 12
53.361840
 22
17.538530
 13
53.361840
 23
17.538530
  0
SOLID
  8
14
  6
CONTINUOUS
 10
55.761840
 20
17.538530
 11
53.361840
 21
17.538530
 12
53.361840
 22
17.538530
 13
53.361840
 23
17.538530
  0
SOLID
  8
14
  6
CONTINUOUS
 10
55.761840
 20
17.538530
 11
53.361840
 21
17.538530
 12
55.761840
 22
17.538530
 13
55.761840
 23
17.538530
  0
SOLID
  8
14
  6
CONTINUOUS
 10
79.761840
 20
18.544097
 11
79.761840
 21
17.944097
 12
81.361840
 22
17.944097
 13
81.361840
 23
17.944097
  0
SOLID
  8
14
  6
CONTINUOUS
 10
79.761840
 20
18.544097
 11
81.361840
 21
17.944097
 12
81.361840
 22
17.944097
 13
81.361840
 23
17.944097
  0
SOLID
  8
14
  6
CONTINUOUS
 10
79.761840
 20
18.544097
 11
81.361840
 21
17.944097
 12
79.761840
 22
18.544097
 13
79.761840
 23
18.544097
  0
SOLID
  8
14
  6
CONTINUOUS
 10
79.761840
 20
18.544097
 11
81.361840
 21
17.944097
 12
81.361840
 22
18.544097
 13
81.361840
 23
18.544097
  0
SOLID
  8
14
  6
CONTINUOUS
 10
79.761840
 20
18.544097
 11
81.361840
 21
18.544097
 12
81.361840
 22
18.544097
 13
81.361840
 23
18.544097
  0
SOLID
  8
14
  6
CONTINUOUS
 10
79.761840
 20
18.544097
 11
81.361840
 21
18.544097
 12
79.761840
 22
18.544097
 13
79.761840
 23
18.544097
  0
SOLID
  8
14
  6
CONTINUOUS
 10
23.461840
 20
12.144097
 11
22.961840
 21
12.144097
 12
22.961840
 22
10.344097
 13
22.961840
 23
10.344097
  0
SOLID
  8
14
  6
CONTINUOUS
 10
23.461840
 20
12.144097
 11
22.961840
 21
10.344097
 12
22.961840
 22
10.344097
 13
22.961840
 23
10.344097
  0
SOLID
  8
14
  6
CONTINUOUS
 10
23.461840
 20
12.144097
 11
22.961840
 21
10.344097
 12
23.461840
 22
12.144097
 13
23.461840
 23
12.144097
  0
SOLID
  8
14
  6
CONTINUOUS
 10
23.461840
 20
12.144097
 11
22.961840
 21
10.344097
 12
23.461840
 22
10.344097
 13
23.461840
 23
10.344097
  0
SOLID
  8
14
  6
CONTINUOUS
 10
23.461840
 20
12.144097
 11
23.461840
 21
10.344097
 12
23.461840
 22
10.344097
 13
23.461840
 23
10.344097
  0
SOLID
  8
14
  6
CONTINUOUS
 10
23.461840
 20
12.144097
 11
23.461840
 21
10.344097
 12
23.461840
 22
12.144097
 13
23.461840
 23
12.144097
  0
SOLID
  8
14
  6
CONTINUOUS
 10
76.861840
 20
10.344097
 11
77.361840
 21
10.344097
 12
77.361840
 22
12.544097
 13
77.361840
 23
12.544097
  0
SOLID
  8
14
  6
CONTINUOUS
 10
76.861840
 20
10.344097
 11
77.361840
 21
12.544097
 12
77.361840
 22
12.544097
 13
77.361840
 23
12.544097
  0
SOLID
  8
14
  6
CONTINUOUS
 10
76.861840
 20
10.344097
 11
77.361840
 21
12.544097
 12
76.861840
 22
10.344097
 13
76.861840
 23
10.344097
  0
SOLID
  8
14
  6
CONTINUOUS
 10
76.861840
 20
10.344097
 11
77.361840
 21
12.544097
 12
76.861840
 22
12.544097
 13
76.861840
 23
12.544097
  0
SOLID
  8
14
  6
CONTINUOUS
 10
76.861840
 20
10.344097
 11
76.861840
 21
12.544097
 12
76.861840
 22
12.544097
 13
76.861840
 23
12.544097
  0
SOLID
  8
14
  6
CONTINUOUS
 10
76.861840
 20
10.344097
 11
76.861840
 21
12.544097
 12
76.861840
 22
10.344097
 13
76.861840
 23
10.344097
  0
SOLID
  8
14
  6
CONTINUOUS
 10
34.361840
 20
9.488530
 11
33.821840
 21
9.488530
 12
33.821840
 22
7.088530
 13
33.821840
 23
7.088530
  0
SOLID
  8
14
  6
CONTINUOUS
 10
34.361840
 20
9.488530
 11
33.821840
 21
7.088530
 12
33.821840
 22
7.088530
 13
33.821840
 23
7.088530
  0
SOLID
  8
14
  6
CONTINUOUS
 10
34.361840
 20
9.488530
 11
33.821840
 21
7.088530
 12
34.361840
 22
9.488530
 13
34.361840
 23
9.488530
  0
SOLID
  8
14
  6
CONTINUOUS
 10
34.361840
 20
9.488530
 11
33.821840
 21
7.088530
 12
34.361840
 22
7.088530
 13
34.361840
 23
7.088530
  0
SOLID
  8
14
  6
CONTINUOUS
 10
34.361840
 20
9.488530
 11
34.361840
 21
7.088530
 12
34.361840
 22
7.088530
 13
34.361840
 23
7.088530
  0
SOLID
  8
14
  6
CONTINUOUS
 10
34.361840
 20
9.488530
 11
34.361840
 21
7.088530
 12
34.361840
 22
9.488530
 13
34.361840
 23
9.488530
  0
SOLID
  8
14
  6
CONTINUOUS
 10
44.981840
 20
9.488530
 11
44.441840
 21
9.488530
 12
44.441840
 22
7.088530
 13
44.441840
 23
7.088530
  0
SOLID
  8
14
  6
CONTINUOUS
 10
44.981840
 20
9.488530
 11
44.441840
 21
7.088530
 12
44.441840
 22
7.088530
 13
44.441840
 23
7.088530
  0
SOLID
  8
14
  6
CONTINUOUS
 10
44.981840
 20
9.488530
 11
44.441840
 21
7.088530
 12
44.981840
 22
9.488530
 13
44.981840
 23
9.488530
  0
SOLID
  8
14
  6
CONTINUOUS
 10
44.981840
 20
9.488530
 11
44.441840
 21
7.088530
 12
44.981840
 22
7.088530
 13
44.981840
 23
7.088530
  0
SOLID
  8
14
  6
CONTINUOUS
 10
44.981840
 20
9.488530
 11
44.981840
 21
7.088530
 12
44.981840
 22
7.088530
 13
44.981840
 23
7.088530
  0
SOLID
  8
14
  6
CONTINUOUS
 10
44.981840
 20
9.488530
 11
44.981840
 21
7.088530
 12
44.981840
 22
9.488530
 13
44.981840
 23
9.488530
  0
SOLID
  8
14
  6
CONTINUOUS
 10
55.341840
 20
7.088530
 11
55.881840
 21
7.088530
 12
55.881840
 22
9.488530
 13
55.881840
 23
9.488530
  0
SOLID
  8
14
  6
CONTINUOUS
 10
55.341840
 20
7.088530
 11
55.881840
 21
9.488530
 12
55.881840
 22
9.488530
 13
55.881840
 23
9.488530
  0
SOLID
  8
14
  6
CONTINUOUS
 10
55.341840
 20
7.088530
 11
55.881840
 21
9.488530
 12
55.341840
 22
7.088530
 13
55.341840
 23
7.088530
  0
SOLID
  8
14
  6
CONTINUOUS
 10
55.341840
 20
7.088530
 11
55.881840
 21
9.488530
 12
55.341840
 22
9.488530
 13
55.341840
 23
9.488530
  0
SOLID
  8
14
  6
CONTINUOUS
 10
55.341840
 20
7.088530
 11
55.341840
 21
9.488530
 12
55.341840
 22
9.488530
 13
55.341840
 23
9.488530
  0
SOLID
  8
14
  6
CONTINUOUS
 10
55.341840
 20
7.088530
 11
55.341840
 21
9.488530
 12
55.341840
 22
7.088530
 13
55.341840
 23
7.088530
  0
SOLID
  8
14
  6
CONTINUOUS
 10
65.961840
 20
7.088530
 11
66.501840
 21
7.088530
 12
66.501840
 22
9.488530
 13
66.501840
 23
9.488530
  0
SOLID
  8
14
  6
CONTINUOUS
 10
65.961840
 20
7.088530
 11
66.501840
 21
9.488530
 12
66.501840
 22
9.488530
 13
66.501840
 23
9.488530
  0
SOLID
  8
14
  6
CONTINUOUS
 10
65.961840
 20
7.088530
 11
66.501840
 21
9.488530
 12
65.961840
 22
7.088530
 13
65.961840
 23
7.088530
  0
SOLID
  8
14
  6
CONTINUOUS
 10
65.961840
 20
7.088530
 11
66.501840
 21
9.488530
 12
65.961840
 22
9.488530
 13
65.961840
 23
9.488530
  0
SOLID
  8
14
  6
CONTINUOUS
 10
65.961840
 20
7.088530
 11
65.961840
 21
9.488530
 12
65.961840
 22
9.488530
 13
65.961840
 23
9.488530
  0
SOLID
  8
14
  6
CONTINUOUS
 10
65.961840
 20
7.088530
 11
65.961840
 21
9.488530
 12
65.961840
 22
7.088530
 13
65.961840
 23
7.088530
  0
LINE
  8
18
  6
CONTINUOUS
 10
15.031763
 20
46.944097
 11
23.092628
 21
46.944097
  0
LINE
  8
18
  6
CONTINUOUS
 10
15.031763
 20
46.564097
 11
23.092628
 21
46.564097
  0
LINE
  8
18
  6
CONTINUOUS
 10
77.231052
 20
46.944097
 11
85.291917
 21
46.944097
  0
LINE
  8
18
  6
CONTINUOUS
 10
77.231052
 20
46.564097
 11
85.291917
 21
46.564097
  0
LINE
  8
18
  6
CONTINUOUS
 10
23.632628
 20
45.144097
 11
29.761840
 21
45.144097
  0
LINE
  8
18
  6
CONTINUOUS
 10
23.632628
 20
44.764097
 11
29.761840
 21
44.764097
  0
LINE
  8
18
  6
CONTINUOUS
 10
30.141840
 20
45.144097
 11
33.861840
 21
45.144097
  0
LINE
  8
18
  6
CONTINUOUS
 10
30.141840
 20
44.764097
 11
33.861840
 21
44.764097
  0
LINE
  8
18
  6
CONTINUOUS
 10
29.761840
 20
45.144097
 11
30.141840
 21
45.144097
  0
LINE
  8
18
  6
CONTINUOUS
 10
29.761840
 20
44.764097
 11
30.141840
 21
44.764097
  0
LINE
  8
18
  6
CONTINUOUS
 10
66.461840
 20
45.144097
 11
70.181840
 21
45.144097
  0
LINE
  8
18
  6
CONTINUOUS
 10
66.461840
 20
44.764097
 11
70.181840
 21
44.764097
  0
LINE
  8
18
  6
CONTINUOUS
 10
70.561840
 20
45.144097
 11
76.691052
 21
45.144097
  0
LINE
  8
18
  6
CONTINUOUS
 10
70.561840
 20
44.764097
 11
76.691052
 21
44.764097
  0
LINE
  8
18
  6
CONTINUOUS
 10
70.181840
 20
45.144097
 11
70.561840
 21
45.144097
  0
LINE
  8
18
  6
CONTINUOUS
 10
70.181840
 20
44.764097
 11
70.561840
 21
44.764097
  0
LINE
  8
18
  6
CONTINUOUS
 10
11.935490
 20
39.124097
 11
14.716089
 21
39.124097
  0
LINE
  8
18
  6
CONTINUOUS
 10
11.935490
 20
38.744097
 11
14.716089
 21
38.744097
  0
LINE
  8
18
  6
CONTINUOUS
 10
15.096089
 20
39.124097
 11
22.416089
 21
39.124097
  0
LINE
  8
18
  6
CONTINUOUS
 10
15.096089
 20
38.744097
 11
22.416089
 21
38.744097
  0
LINE
  8
18
  6
CONTINUOUS
 10
14.716089
 20
39.124097
 11
15.096089
 21
39.124097
  0
LINE
  8
18
  6
CONTINUOUS
 10
14.716089
 20
38.744097
 11
15.096089
 21
38.744097
  0
LINE
  8
18
  6
CONTINUOUS
 10
77.907591
 20
39.124097
 11
85.227591
 21
39.124097
  0
LINE
  8
18
  6
CONTINUOUS
 10
77.907591
 20
38.744097
 11
85.227591
 21
38.744097
  0
LINE
  8
18
  6
CONTINUOUS
 10
85.607591
 20
39.124097
 11
88.388190
 21
39.124097
  0
LINE
  8
18
  6
CONTINUOUS
 10
85.607591
 20
38.744097
 11
88.388190
 21
38.744097
  0
LINE
  8
18
  6
CONTINUOUS
 10
85.227591
 20
39.124097
 11
85.607591
 21
39.124097
  0
LINE
  8
18
  6
CONTINUOUS
 10
85.227591
 20
38.744097
 11
85.607591
 21
38.744097
  0
LINE
  8
18
  6
CONTINUOUS
 10
30.141840
 20
35.744097
 11
33.981840
 21
35.744097
  0
LINE
  8
18
  6
CONTINUOUS
 10
30.141840
 20
35.364097
 11
33.981840
 21
35.364097
  0
LINE
  8
18
  6
CONTINUOUS
 10
34.361840
 20
35.744097
 11
36.961840
 21
35.744097
  0
LINE
  8
18
  6
CONTINUOUS
 10
34.361840
 20
35.364097
 11
36.961840
 21
35.364097
  0
LINE
  8
18
  6
CONTINUOUS
 10
29.761840
 20
35.744097
 11
30.141840
 21
35.744097
  0
LINE
  8
18
  6
CONTINUOUS
 10
29.761840
 20
35.364097
 11
30.141840
 21
35.364097
  0
LINE
  8
18
  6
CONTINUOUS
 10
33.981840
 20
35.744097
 11
34.361840
 21
35.744097
  0
LINE
  8
18
  6
CONTINUOUS
 10
33.981840
 20
35.364097
 11
34.361840
 21
35.364097
  0
LINE
  8
18
  6
CONTINUOUS
 10
36.961840
 20
35.744097
 11
37.401840
 21
35.744097
  0
LINE
  8
18
  6
CONTINUOUS
 10
36.961840
 20
35.364097
 11
37.401840
 21
35.364097
  0
LINE
  8
18
  6
CONTINUOUS
 10
63.361840
 20
35.744097
 11
65.961840
 21
35.744097
  0
LINE
  8
18
  6
CONTINUOUS
 10
63.361840
 20
35.364097
 11
65.961840
 21
35.364097
  0
LINE
  8
18
  6
CONTINUOUS
 10
66.341840
 20
35.744097
 11
70.181840
 21
35.744097
  0
LINE
  8
18
  6
CONTINUOUS
 10
66.341840
 20
35.364097
 11
70.181840
 21
35.364097
  0
LINE
  8
18
  6
CONTINUOUS
 10
62.921840
 20
35.744097
 11
63.361840
 21
35.744097
  0
LINE
  8
18
  6
CONTINUOUS
 10
62.921840
 20
35.364097
 11
63.361840
 21
35.364097
  0
LINE
  8
18
  6
CONTINUOUS
 10
65.961840
 20
35.744097
 11
66.341840
 21
35.744097
  0
LINE
  8
18
  6
CONTINUOUS
 10
65.961840
 20
35.364097
 11
66.341840
 21
35.364097
  0
LINE
  8
18
  6
CONTINUOUS
 10
70.181840
 20
35.744097
 11
70.561840
 21
35.744097
  0
LINE
  8
18
  6
CONTINUOUS
 10
70.181840
 20
35.364097
 11
70.561840
 21
35.364097
  0
LINE
  8
18
  6
CONTINUOUS
 10
16.316089
 20
33.324097
 11
18.961840
 21
33.324097
  0
LINE
  8
18
  6
CONTINUOUS
 10
16.316089
 20
32.944097
 11
18.961840
 21
32.944097
  0
LINE
  8
18
  6
CONTINUOUS
 10
19.341840
 20
33.324097
 11
22.536089
 21
33.324097
  0
LINE
  8
18
  6
CONTINUOUS
 10
19.341840
 20
32.944097
 11
22.536089
 21
32.944097
  0
LINE
  8
18
  6
CONTINUOUS
 10
22.916089
 20
33.324097
 11
27.761840
 21
33.324097
  0
LINE
  8
18
  6
CONTINUOUS
 10
22.916089
 20
32.944097
 11
27.761840
 21
32.944097
  0
LINE
  8
18
  6
CONTINUOUS
 10
30.161840
 20
33.324097
 11
33.981840
 21
33.324097
  0
LINE
  8
18
  6
CONTINUOUS
 10
30.161840
 20
32.944097
 11
33.981840
 21
32.944097
  0
LINE
  8
18
  6
CONTINUOUS
 10
34.361840
 20
33.324097
 11
36.961840
 21
33.324097
  0
LINE
  8
18
  6
CONTINUOUS
 10
34.361840
 20
32.944097
 11
36.961840
 21
32.944097
  0
LINE
  8
18
  6
CONTINUOUS
 10
18.961840
 20
33.324097
 11
19.341840
 21
33.324097
  0
LINE
  8
18
  6
CONTINUOUS
 10
18.961840
 20
32.944097
 11
19.341840
 21
32.944097
  0
LINE
  8
18
  6
CONTINUOUS
 10
22.536089
 20
33.324097
 11
22.916089
 21
33.324097
  0
LINE
  8
18
  6
CONTINUOUS
 10
22.536089
 20
32.944097
 11
22.916089
 21
32.944097
  0
LINE
  8
18
  6
CONTINUOUS
 10
33.981840
 20
33.324097
 11
34.361840
 21
33.324097
  0
LINE
  8
18
  6
CONTINUOUS
 10
33.981840
 20
32.944097
 11
34.361840
 21
32.944097
  0
LINE
  8
18
  6
CONTINUOUS
 10
36.961840
 20
33.324097
 11
37.401840
 21
33.324097
  0
LINE
  8
18
  6
CONTINUOUS
 10
36.961840
 20
32.944097
 11
37.401840
 21
32.944097
  0
LINE
  8
18
  6
CONTINUOUS
 10
63.361840
 20
33.324097
 11
65.961840
 21
33.324097
  0
LINE
  8
18
  6
CONTINUOUS
 10
63.361840
 20
32.944097
 11
65.961840
 21
32.944097
  0
LINE
  8
18
  6
CONTINUOUS
 10
66.341840
 20
33.324097
 11
70.181840
 21
33.324097
  0
LINE
  8
18
  6
CONTINUOUS
 10
66.341840
 20
32.944097
 11
70.181840
 21
32.944097
  0
LINE
  8
18
  6
CONTINUOUS
 10
72.581840
 20
33.324097
 11
77.407591
 21
33.324097
  0
LINE
  8
18
  6
CONTINUOUS
 10
72.581840
 20
32.944097
 11
77.407591
 21
32.944097
  0
LINE
  8
18
  6
CONTINUOUS
 10
77.787591
 20
33.324097
 11
80.981840
 21
33.324097
  0
LINE
  8
18
  6
CONTINUOUS
 10
77.787591
 20
32.944097
 11
80.981840
 21
32.944097
  0
LINE
  8
18
  6
CONTINUOUS
 10
81.361840
 20
33.324097
 11
84.007592
 21
33.324097
  0
LINE
  8
18
  6
CONTINUOUS
 10
81.361840
 20
32.944097
 11
84.007592
 21
32.944097
  0
LINE
  8
18
  6
CONTINUOUS
 10
62.921840
 20
33.324097
 11
63.361840
 21
33.324097
  0
LINE
  8
18
  6
CONTINUOUS
 10
62.921840
 20
32.944097
 11
63.361840
 21
32.944097
  0
LINE
  8
18
  6
CONTINUOUS
 10
65.961840
 20
33.324097
 11
66.341840
 21
33.324097
  0
LINE
  8
18
  6
CONTINUOUS
 10
65.961840
 20
32.944097
 11
66.341840
 21
32.944097
  0
LINE
  8
18
  6
CONTINUOUS
 10
77.407591
 20
33.324097
 11
77.787591
 21
33.324097
  0
LINE
  8
18
  6
CONTINUOUS
 10
77.407591
 20
32.944097
 11
77.787591
 21
32.944097
  0
LINE
  8
18
  6
CONTINUOUS
 10
80.981840
 20
33.324097
 11
81.361840
 21
33.324097
  0
LINE
  8
18
  6
CONTINUOUS
 10
80.981840
 20
32.944097
 11
81.361840
 21
32.944097
  0
LINE
  8
18
  6
CONTINUOUS
 10
41.861840
 20
32.468530
 11
49.961840
 21
32.468530
  0
LINE
  8
18
  6
CONTINUOUS
 10
41.861840
 20
32.028530
 11
49.961840
 21
32.028530
  0
LINE
  8
18
  6
CONTINUOUS
 10
50.341840
 20
32.468530
 11
51.601840
 21
32.468530
  0
LINE
  8
18
  6
CONTINUOUS
 10
50.341840
 20
32.028530
 11
51.601840
 21
32.028530
  0
LINE
  8
18
  6
CONTINUOUS
 10
49.961840
 20
32.468530
 11
50.341840
 21
32.468530
  0
LINE
  8
18
  6
CONTINUOUS
 10
49.961840
 20
32.028530
 11
50.341840
 21
32.028530
  0
LINE
  8
18
  6
CONTINUOUS
 10
37.461840
 20
31.668530
 11
41.361840
 21
31.668530
  0
LINE
  8
18
  6
CONTINUOUS
 10
37.461840
 20
31.288530
 11
41.361840
 21
31.288530
  0
LINE
  8
18
  6
CONTINUOUS
 10
53.201840
 20
31.668530
 11
55.921840
 21
31.668530
  0
LINE
  8
18
  6
CONTINUOUS
 10
53.201840
 20
31.288530
 11
55.921840
 21
31.288530
  0
LINE
  8
18
  6
CONTINUOUS
 10
55.921840
 20
31.668530
 11
58.561840
 21
31.668530
  0
LINE
  8
18
  6
CONTINUOUS
 10
55.921840
 20
31.288530
 11
58.561840
 21
31.288530
  0
LINE
  8
18
  6
CONTINUOUS
 10
58.941840
 20
31.668530
 11
62.861840
 21
31.668530
  0
LINE
  8
18
  6
CONTINUOUS
 10
58.941840
 20
31.288530
 11
62.861840
 21
31.288530
  0
LINE
  8
18
  6
CONTINUOUS
 10
52.701840
 20
31.668530
 11
53.201840
 21
31.668530
  0
LINE
  8
18
  6
CONTINUOUS
 10
52.701840
 20
31.288530
 11
53.201840
 21
31.288530
  0
LINE
  8
18
  6
CONTINUOUS
 10
58.561840
 20
31.668530
 11
58.941840
 21
31.668530
  0
LINE
  8
18
  6
CONTINUOUS
 10
58.561840
 20
31.288530
 11
58.941840
 21
31.288530
  0
LINE
  8
18
  6
CONTINUOUS
 10
37.461840
 20
26.508530
 11
41.361840
 21
26.508530
  0
LINE
  8
18
  6
CONTINUOUS
 10
37.461840
 20
26.068530
 11
41.361840
 21
26.068530
  0
LINE
  8
18
  6
CONTINUOUS
 10
43.761840
 20
26.508530
 11
44.561840
 21
26.508530
  0
LINE
  8
18
  6
CONTINUOUS
 10
43.761840
 20
26.068530
 11
44.561840
 21
26.068530
  0
LINE
  8
18
  6
CONTINUOUS
 10
44.941840
 20
26.508530
 11
47.161840
 21
26.508530
  0
LINE
  8
18
  6
CONTINUOUS
 10
44.941840
 20
26.068530
 11
47.161840
 21
26.068530
  0
LINE
  8
18
  6
CONTINUOUS
 10
47.161840
 20
26.508530
 11
49.961840
 21
26.508530
  0
LINE
  8
18
  6
CONTINUOUS
 10
47.161840
 20
26.068530
 11
49.961840
 21
26.068530
  0
LINE
  8
18
  6
CONTINUOUS
 10
50.341840
 20
26.508530
 11
52.701840
 21
26.508530
  0
LINE
  8
18
  6
CONTINUOUS
 10
50.341840
 20
26.068530
 11
52.701840
 21
26.068530
  0
LINE
  8
18
  6
CONTINUOUS
 10
53.201840
 20
26.508530
 11
53.621840
 21
26.508530
  0
LINE
  8
18
  6
CONTINUOUS
 10
53.201840
 20
26.068530
 11
53.621840
 21
26.068530
  0
LINE
  8
18
  6
CONTINUOUS
 10
56.021840
 20
26.508530
 11
58.561840
 21
26.508530
  0
LINE
  8
18
  6
CONTINUOUS
 10
56.021840
 20
26.068530
 11
58.561840
 21
26.068530
  0
LINE
  8
18
  6
CONTINUOUS
 10
58.941840
 20
26.508530
 11
62.861840
 21
26.508530
  0
LINE
  8
18
  6
CONTINUOUS
 10
58.941840
 20
26.068530
 11
62.861840
 21
26.068530
  0
LINE
  8
18
  6
CONTINUOUS
 10
44.561840
 20
26.508530
 11
44.941840
 21
26.508530
  0
LINE
  8
18
  6
CONTINUOUS
 10
44.561840
 20
26.068530
 11
44.941840
 21
26.068530
  0
LINE
  8
18
  6
CONTINUOUS
 10
49.961840
 20
26.508530
 11
50.341840
 21
26.508530
  0
LINE
  8
18
  6
CONTINUOUS
 10
49.961840
 20
26.068530
 11
50.341840
 21
26.068530
  0
LINE
  8
18
  6
CONTINUOUS
 10
52.701840
 20
26.508530
 11
53.201840
 21
26.508530
  0
LINE
  8
18
  6
CONTINUOUS
 10
52.701840
 20
26.068530
 11
53.201840
 21
26.068530
  0
LINE
  8
18
  6
CONTINUOUS
 10
58.561840
 20
26.508530
 11
58.941840
 21
26.508530
  0
LINE
  8
18
  6
CONTINUOUS
 10
58.561840
 20
26.068530
 11
58.941840
 21
26.068530
  0
LINE
  8
18
  6
CONTINUOUS
 10
19.341840
 20
24.744097
 11
26.561840
 21
24.744097
  0
LINE
  8
18
  6
CONTINUOUS
 10
19.341840
 20
24.364097
 11
26.450976
 21
24.364097
  0
LINE
  8
18
  6
CONTINUOUS
 10
26.561840
 20
24.744097
 11
28.561840
 21
23.468530
  0
LINE
  8
18
  6
CONTINUOUS
 10
26.450976
 20
24.364097
 11
28.561840
 21
23.017822
  0
LINE
  8
18
  6
CONTINUOUS
 10
18.961840
 20
24.744097
 11
19.341840
 21
24.744097
  0
LINE
  8
18
  6
CONTINUOUS
 10
18.961840
 20
24.364097
 11
19.341840
 21
24.364097
  0
LINE
  8
18
  6
CONTINUOUS
 10
71.761840
 20
23.468530
 11
73.761840
 21
24.744097
  0
LINE
  8
18
  6
CONTINUOUS
 10
71.761840
 20
23.017822
 11
73.872704
 21
24.364097
  0
LINE
  8
18
  6
CONTINUOUS
 10
73.761840
 20
24.744097
 11
80.981840
 21
24.744097
  0
LINE
  8
18
  6
CONTINUOUS
 10
73.872704
 20
24.364097
 11
80.981840
 21
24.364097
  0
LINE
  8
18
  6
CONTINUOUS
 10
80.981840
 20
24.744097
 11
81.361840
 21
24.744097
  0
LINE
  8
18
  6
CONTINUOUS
 10
80.981840
 20
24.364097
 11
81.361840
 21
24.364097
  0
LINE
  8
18
  6
CONTINUOUS
 10
34.361840
 20
20.648530
 11
44.561840
 21
20.648530
  0
LINE
  8
18
  6
CONTINUOUS
 10
34.361840
 20
20.268530
 11
44.561840
 21
20.268530
  0
LINE
  8
18
  6
CONTINUOUS
 10
33.981840
 20
20.648530
 11
34.361840
 21
20.648530
  0
LINE
  8
18
  6
CONTINUOUS
 10
33.981840
 20
20.268530
 11
34.361840
 21
20.268530
  0
LINE
  8
18
  6
CONTINUOUS
 10
44.561840
 20
20.648530
 11
44.941840
 21
20.648530
  0
LINE
  8
18
  6
CONTINUOUS
 10
44.561840
 20
20.268530
 11
44.941840
 21
20.268530
  0
LINE
  8
18
  6
CONTINUOUS
 10
55.761840
 20
20.648530
 11
65.961840
 21
20.648530
  0
LINE
  8
18
  6
CONTINUOUS
 10
55.761840
 20
20.268530
 11
65.961840
 21
20.268530
  0
LINE
  8
18
  6
CONTINUOUS
 10
55.381840
 20
20.648530
 11
55.761840
 21
20.648530
  0
LINE
  8
18
  6
CONTINUOUS
 10
55.381840
 20
20.268530
 11
55.761840
 21
20.268530
  0
LINE
  8
18
  6
CONTINUOUS
 10
65.961840
 20
20.648530
 11
66.341840
 21
20.648530
  0
LINE
  8
18
  6
CONTINUOUS
 10
65.961840
 20
20.268530
 11
66.341840
 21
20.268530
  0
LINE
  8
18
  6
CONTINUOUS
 10
20.561840
 20
18.324097
 11
22.961840
 21
18.324097
  0
LINE
  8
18
  6
CONTINUOUS
 10
20.561840
 20
17.944097
 11
22.961840
 21
17.944097
  0
LINE
  8
18
  6
CONTINUOUS
 10
23.341840
 20
18.324097
 11
28.561840
 21
18.324097
  0
LINE
  8
18
  6
CONTINUOUS
 10
23.341840
 20
17.944097
 11
28.561840
 21
17.944097
  0
LINE
  8
18
  6
CONTINUOUS
 10
22.961840
 20
18.324097
 11
23.341840
 21
18.324097
  0
LINE
  8
18
  6
CONTINUOUS
 10
22.961840
 20
17.944097
 11
23.341840
 21
17.944097
  0
LINE
  8
18
  6
CONTINUOUS
 10
28.561840
 20
18.324097
 11
28.941840
 21
18.324097
  0
LINE
  8
18
  6
CONTINUOUS
 10
28.561840
 20
17.944097
 11
28.941840
 21
17.944097
  0
LINE
  8
18
  6
CONTINUOUS
 10
46.961840
 20
18.028530
 11
53.361840
 21
18.028530
  0
LINE
  8
18
  6
CONTINUOUS
 10
46.961840
 20
17.648530
 11
53.361840
 21
17.648530
  0
LINE
  8
18
  6
CONTINUOUS
 10
71.761840
 20
18.324097
 11
76.981840
 21
18.324097
  0
LINE
  8
18
  6
CONTINUOUS
 10
71.761840
 20
17.944097
 11
76.981840
 21
17.944097
  0
LINE
  8
18
  6
CONTINUOUS
 10
77.361840
 20
18.324097
 11
79.761840
 21
18.324097
  0
LINE
  8
18
  6
CONTINUOUS
 10
77.361840
 20
17.944097
 11
79.761840
 21
17.944097
  0
LINE
  8
18
  6
CONTINUOUS
 10
71.381840
 20
18.324097
 11
71.761840
 21
18.324097
  0
LINE
  8
18
  6
CONTINUOUS
 10
71.381840
 20
17.944097
 11
71.761840
 21
17.944097
  0
LINE
  8
18
  6
CONTINUOUS
 10
76.981840
 20
18.324097
 11
77.361840
 21
18.324097
  0
LINE
  8
18
  6
CONTINUOUS
 10
76.981840
 20
17.944097
 11
77.361840
 21
17.944097
  0
LINE
  8
18
  6
CONTINUOUS
 10
23.461840
 20
10.724097
 11
28.561840
 21
10.724097
  0
LINE
  8
18
  6
CONTINUOUS
 10
23.461840
 20
10.344097
 11
28.561840
 21
10.344097
  0
LINE
  8
18
  6
CONTINUOUS
 10
28.561840
 20
10.724097
 11
28.941840
 21
10.724097
  0
LINE
  8
18
  6
CONTINUOUS
 10
28.561840
 20
10.344097
 11
28.941840
 21
10.344097
  0
LINE
  8
18
  6
CONTINUOUS
 10
71.761840
 20
10.724097
 11
76.861840
 21
10.724097
  0
LINE
  8
18
  6
CONTINUOUS
 10
71.761840
 20
10.344097
 11
76.861840
 21
10.344097
  0
LINE
  8
18
  6
CONTINUOUS
 10
71.381840
 20
10.724097
 11
71.761840
 21
10.724097
  0
LINE
  8
18
  6
CONTINUOUS
 10
71.381840
 20
10.344097
 11
71.761840
 21
10.344097
  0
LINE
  8
18
  6
CONTINUOUS
 10
28.941840
 20
7.468530
 11
33.821840
 21
7.468530
  0
LINE
  8
18
  6
CONTINUOUS
 10
28.941840
 20
7.088530
 11
33.821840
 21
7.088530
  0
LINE
  8
18
  6
CONTINUOUS
 10
34.361840
 20
7.468530
 11
44.441840
 21
7.468530
  0
LINE
  8
18
  6
CONTINUOUS
 10
34.361840
 20
7.088530
 11
44.441840
 21
7.088530
  0
LINE
  8
18
  6
CONTINUOUS
 10
44.981840
 20
7.468530
 11
55.341840
 21
7.468530
  0
LINE
  8
18
  6
CONTINUOUS
 10
44.981840
 20
7.088530
 11
55.341840
 21
7.088530
  0
LINE
  8
18
  6
CONTINUOUS
 10
55.881840
 20
7.468530
 11
65.961840
 21
7.468530
  0
LINE
  8
18
  6
CONTINUOUS
 10
55.881840
 20
7.088530
 11
65.961840
 21
7.088530
  0
LINE
  8
18
  6
CONTINUOUS
 10
66.501840
 20
7.468530
 11
71.381840
 21
7.468530
  0
LINE
  8
18
  6
CONTINUOUS
 10
66.501840
 20
7.088530
 11
71.381840
 21
7.088530
  0
LINE
  8
18
  6
CONTINUOUS
 10
28.561840
 20
7.468530
 11
28.941840
 21
7.468530
  0
LINE
  8
18
  6
CONTINUOUS
 10
28.561840
 20
7.088530
 11
28.941840
 21
7.088530
  0
LINE
  8
18
  6
CONTINUOUS
 10
71.381840
 20
7.468530
 11
71.761840
 21
7.468530
  0
LINE
  8
18
  6
CONTINUOUS
 10
71.381840
 20
7.088530
 11
71.761840
 21
7.088530
  0
LINE
  8
18
  6
CONTINUOUS
 10
10.571340
 20
39.244097
 11
13.331762
 21
46.944097
  0
LINE
  8
18
  6
CONTINUOUS
 10
10.975021
 20
39.244097
 11
13.556195
 21
46.444097
  0
LINE
  8
18
  6
CONTINUOUS
 10
14.716089
 20
33.444097
 11
14.716089
 21
38.744097
  0
LINE
  8
18
  6
CONTINUOUS
 10
15.096089
 20
33.444097
 11
15.096089
 21
38.744097
  0
LINE
  8
18
  6
CONTINUOUS
 10
14.716089
 20
38.744097
 11
14.716089
 21
39.124097
  0
LINE
  8
18
  6
CONTINUOUS
 10
15.096089
 20
38.744097
 11
15.096089
 21
39.124097
  0
LINE
  8
18
  6
CONTINUOUS
 10
18.961840
 20
18.544097
 11
18.961840
 21
24.364097
  0
LINE
  8
18
  6
CONTINUOUS
 10
19.341840
 20
18.544097
 11
19.341840
 21
24.364097
  0
LINE
  8
18
  6
CONTINUOUS
 10
18.961840
 20
24.744097
 11
18.961840
 21
32.944097
  0
LINE
  8
18
  6
CONTINUOUS
 10
19.341840
 20
24.744097
 11
19.341840
 21
32.944097
  0
LINE
  8
18
  6
CONTINUOUS
 10
18.961840
 20
24.364097
 11
18.961840
 21
24.744097
  0
LINE
  8
18
  6
CONTINUOUS
 10
19.341840
 20
24.364097
 11
19.341840
 21
24.744097
  0
LINE
  8
18
  6
CONTINUOUS
 10
18.961840
 20
32.944097
 11
18.961840
 21
33.324097
  0
LINE
  8
18
  6
CONTINUOUS
 10
19.341840
 20
32.944097
 11
19.341840
 21
33.324097
  0
LINE
  8
18
  6
CONTINUOUS
 10
22.536089
 20
36.944097
 11
22.536089
 21
36.944097
  0
LINE
  8
18
  6
CONTINUOUS
 10
22.916089
 20
36.944097
 11
22.916089
 21
36.944097
  0
LINE
  8
18
  6
CONTINUOUS
 10
22.343675
 20
39.018417
 11
23.132628
 21
41.220538
  0
LINE
  8
18
  6
CONTINUOUS
 10
22.916089
 20
39.133674
 11
23.632628
 21
41.133674
  0
LINE
  8
18
  6
CONTINUOUS
 10
23.132628
 20
41.220538
 11
23.132628
 21
44.954097
  0
LINE
  8
18
  6
CONTINUOUS
 10
23.632628
 20
41.133674
 11
23.632628
 21
44.954097
  0
LINE
  8
18
  6
CONTINUOUS
 10
23.132628
 20
44.954097
 11
23.132628
 21
44.444097
  0
LINE
  8
18
  6
CONTINUOUS
 10
23.632628
 20
44.954097
 11
23.632628
 21
44.444097
  0
LINE
  8
18
  6
CONTINUOUS
 10
22.961840
 20
12.144097
 11
22.961840
 21
17.944097
  0
LINE
  8
18
  6
CONTINUOUS
 10
23.341840
 20
12.144097
 11
23.341840
 21
17.944097
  0
LINE
  8
18
  6
CONTINUOUS
 10
22.961840
 20
17.944097
 11
22.961840
 21
18.324097
  0
LINE
  8
18
  6
CONTINUOUS
 10
23.341840
 20
17.944097
 11
23.341840
 21
18.324097
  0
LINE
  8
18
  6
CONTINUOUS
 10
28.561840
 20
7.468530
 11
28.561840
 21
10.344097
  0
LINE
  8
18
  6
CONTINUOUS
 10
28.941840
 20
7.468530
 11
28.941840
 21
10.344097
  0
LINE
  8
18
  6
CONTINUOUS
 10
28.561840
 20
10.724097
 11
28.561840
 21
17.944097
  0
LINE
  8
18
  6
CONTINUOUS
 10
28.941840
 20
10.724097
 11
28.941840
 21
17.944097
  0
LINE
  8
18
  6
CONTINUOUS
 10
28.561840
 20
18.324097
 11
28.561840
 21
21.468530
  0
LINE
  8
18
  6
CONTINUOUS
 10
28.941840
 20
18.324097
 11
28.941840
 21
21.468530
  0
LINE
  8
18
  6
CONTINUOUS
 10
28.561840
 20
21.468530
 11
28.561840
 21
21.468530
  0
LINE
  8
18
  6
CONTINUOUS
 10
28.941840
 20
21.468530
 11
28.941840
 21
21.468530
  0
LINE
  8
18
  6
CONTINUOUS
 10
28.561840
 20
7.088530
 11
28.561840
 21
7.468530
  0
LINE
  8
18
  6
CONTINUOUS
 10
28.941840
 20
7.088530
 11
28.941840
 21
7.468530
  0
LINE
  8
18
  6
CONTINUOUS
 10
28.561840
 20
10.344097
 11
28.561840
 21
10.724097
  0
LINE
  8
18
  6
CONTINUOUS
 10
28.941840
 20
10.344097
 11
28.941840
 21
10.724097
  0
LINE
  8
18
  6
CONTINUOUS
 10
28.561840
 20
17.944097
 11
28.561840
 21
18.324097
  0
LINE
  8
18
  6
CONTINUOUS
 10
28.941840
 20
17.944097
 11
28.941840
 21
18.324097
  0
LINE
  8
18
  6
CONTINUOUS
 10
29.761840
 20
33.324097
 11
29.761840
 21
35.364097
  0
LINE
  8
18
  6
CONTINUOUS
 10
30.141840
 20
33.324097
 11
30.141840
 21
35.364097
  0
LINE
  8
18
  6
CONTINUOUS
 10
29.761840
 20
35.744097
 11
29.761840
 21
44.764097
  0
LINE
  8
18
  6
CONTINUOUS
 10
30.141840
 20
35.744097
 11
30.141840
 21
44.764097
  0
LINE
  8
18
  6
CONTINUOUS
 10
29.761840
 20
35.364097
 11
29.761840
 21
35.744097
  0
LINE
  8
18
  6
CONTINUOUS
 10
30.141840
 20
35.364097
 11
30.141840
 21
35.744097
  0
LINE
  8
18
  6
CONTINUOUS
 10
29.761840
 20
44.764097
 11
29.761840
 21
45.144097
  0
LINE
  8
18
  6
CONTINUOUS
 10
30.141840
 20
44.764097
 11
30.141840
 21
45.144097
  0
LINE
  8
18
  6
CONTINUOUS
 10
33.981840
 20
9.488530
 11
33.981840
 21
20.268530
  0
LINE
  8
18
  6
CONTINUOUS
 10
34.361840
 20
9.488530
 11
34.361840
 21
20.268530
  0
LINE
  8
18
  6
CONTINUOUS
 10
33.981840
 20
20.648530
 11
33.981840
 21
21.068530
  0
LINE
  8
18
  6
CONTINUOUS
 10
34.361840
 20
20.648530
 11
34.361840
 21
21.068530
  0
LINE
  8
18
  6
CONTINUOUS
 10
33.981840
 20
23.468530
 11
33.981840
 21
32.944097
  0
LINE
  8
18
  6
CONTINUOUS
 10
34.361840
 20
23.468530
 11
34.361840
 21
32.944097
  0
LINE
  8
18
  6
CONTINUOUS
 10
33.981840
 20
20.268530
 11
33.981840
 21
20.648530
  0
LINE
  8
18
  6
CONTINUOUS
 10
34.361840
 20
20.268530
 11
34.361840
 21
20.648530
  0
LINE
  8
18
  6
CONTINUOUS
 10
33.981840
 20
32.944097
 11
33.981840
 21
33.324097
  0
LINE
  8
18
  6
CONTINUOUS
 10
34.361840
 20
32.944097
 11
34.361840
 21
33.324097
  0
LINE
  8
18
  6
CONTINUOUS
 10
33.981840
 20
35.744097
 11
33.981840
 21
43.920058
  0
LINE
  8
18
  6
CONTINUOUS
 10
34.361840
 20
35.744097
 11
34.361840
 21
43.920058
  0
LINE
  8
18
  6
CONTINUOUS
 10
33.981842
 20
43.920906
 11
33.985665
 21
43.344097
  0
LINE
  8
18
  6
CONTINUOUS
 10
34.361838
 20
43.919210
 11
34.366453
 21
44.953249
  0
LINE
  8
18
  6
CONTINUOUS
 10
33.981840
 20
35.364097
 11
33.981840
 21
35.744097
  0
LINE
  8
18
  6
CONTINUOUS
 10
34.361840
 20
35.364097
 11
34.361840
 21
35.744097
  0
LINE
  8
18
  6
CONTINUOUS
 10
36.961840
 20
31.668530
 11
36.961840
 21
31.478530
  0
LINE
  8
18
  6
CONTINUOUS
 10
37.401840
 20
31.668530
 11
37.401840
 21
31.478530
  0
LINE
  8
18
  6
CONTINUOUS
 10
36.961840
 20
31.478530
 11
36.961840
 21
32.944097
  0
LINE
  8
18
  6
CONTINUOUS
 10
37.401840
 20
31.478530
 11
37.401840
 21
32.944097
  0
LINE
  8
18
  6
CONTINUOUS
 10
36.961840
 20
33.324097
 11
36.961840
 21
35.364097
  0
LINE
  8
18
  6
CONTINUOUS
 10
37.401840
 20
33.324097
 11
37.401840
 21
35.364097
  0
LINE
  8
18
  6
CONTINUOUS
 10
36.961840
 20
32.944097
 11
36.961840
 21
33.324097
  0
LINE
  8
18
  6
CONTINUOUS
 10
37.401840
 20
32.944097
 11
37.401840
 21
33.324097
  0
LINE
  8
18
  6
CONTINUOUS
 10
36.961840
 20
35.364097
 11
36.961840
 21
35.744097
  0
LINE
  8
18
  6
CONTINUOUS
 10
37.401840
 20
35.364097
 11
37.401840
 21
35.744097
  0
LINE
  8
18
  6
CONTINUOUS
 10
44.561840
 20
9.488530
 11
44.561840
 21
17.538530
  0
LINE
  8
18
  6
CONTINUOUS
 10
44.941840
 20
9.488530
 11
44.941840
 21
17.538530
  0
LINE
  8
18
  6
CONTINUOUS
 10
44.561840
 20
18.138530
 11
44.561840
 21
20.268530
  0
LINE
  8
18
  6
CONTINUOUS
 10
44.941840
 20
18.138530
 11
44.941840
 21
20.268530
  0
LINE
  8
18
  6
CONTINUOUS
 10
44.561840
 20
20.648530
 11
44.561840
 21
26.068530
  0
LINE
  8
18
  6
CONTINUOUS
 10
44.941840
 20
20.648530
 11
44.941840
 21
26.068530
  0
LINE
  8
18
  6
CONTINUOUS
 10
44.561840
 20
20.268530
 11
44.561840
 21
20.648530
  0
LINE
  8
18
  6
CONTINUOUS
 10
44.941840
 20
20.268530
 11
44.941840
 21
20.648530
  0
LINE
  8
18
  6
CONTINUOUS
 10
44.561840
 20
26.068530
 11
44.561840
 21
26.508530
  0
LINE
  8
18
  6
CONTINUOUS
 10
44.941840
 20
26.068530
 11
44.941840
 21
26.508530
  0
LINE
  8
18
  6
CONTINUOUS
 10
49.961840
 20
26.508530
 11
49.961840
 21
29.268130
  0
LINE
  8
18
  6
CONTINUOUS
 10
50.341840
 20
26.508530
 11
50.341840
 21
29.268130
  0
LINE
  8
18
  6
CONTINUOUS
 10
49.961840
 20
29.268130
 11
49.961840
 21
32.067730
  0
LINE
  8
18
  6
CONTINUOUS
 10
50.341840
 20
29.268130
 11
50.341840
 21
32.067730
  0
LINE
  8
18
  6
CONTINUOUS
 10
49.961840
 20
32.067730
 11
49.961840
 21
32.028530
  0
LINE
  8
18
  6
CONTINUOUS
 10
50.341840
 20
32.067730
 11
50.341840
 21
32.028530
  0
LINE
  8
18
  6
CONTINUOUS
 10
49.961840
 20
26.068530
 11
49.961840
 21
26.508530
  0
LINE
  8
18
  6
CONTINUOUS
 10
50.341840
 20
26.068530
 11
50.341840
 21
26.508530
  0
LINE
  8
18
  6
CONTINUOUS
 10
49.961840
 20
32.028530
 11
49.961840
 21
32.468530
  0
LINE
  8
18
  6
CONTINUOUS
 10
50.341840
 20
32.028530
 11
50.341840
 21
32.468530
  0
LINE
  8
18
  6
CONTINUOUS
 10
52.701840
 20
26.508530
 11
52.701840
 21
31.288530
  0
LINE
  8
18
  6
CONTINUOUS
 10
53.201840
 20
26.508530
 11
53.201840
 21
31.288530
  0
LINE
  8
18
  6
CONTINUOUS
 10
52.701840
 20
31.668530
 11
52.701840
 21
31.968530
  0
LINE
  8
18
  6
CONTINUOUS
 10
53.201840
 20
31.668530
 11
53.201840
 21
31.968530
  0
LINE
  8
18
  6
CONTINUOUS
 10
52.701840
 20
26.068530
 11
52.701840
 21
26.508530
  0
LINE
  8
18
  6
CONTINUOUS
 10
53.201840
 20
26.068530
 11
53.201840
 21
26.508530
  0
LINE
  8
18
  6
CONTINUOUS
 10
52.701840
 20
31.288530
 11
52.701840
 21
31.668530
  0
LINE
  8
18
  6
CONTINUOUS
 10
53.201840
 20
31.288530
 11
53.201840
 21
31.668530
  0
LINE
  8
18
  6
CONTINUOUS
 10
55.381840
 20
9.488530
 11
55.381840
 21
17.538530
  0
LINE
  8
18
  6
CONTINUOUS
 10
55.761840
 20
9.488530
 11
55.761840
 21
17.538530
  0
LINE
  8
18
  6
CONTINUOUS
 10
55.381840
 20
18.138530
 11
55.381840
 21
20.268530
  0
LINE
  8
18
  6
CONTINUOUS
 10
55.761840
 20
18.138530
 11
55.761840
 21
20.268530
  0
LINE
  8
18
  6
CONTINUOUS
 10
55.381840
 20
20.648530
 11
55.381840
 21
26.068530
  0
LINE
  8
18
  6
CONTINUOUS
 10
55.761840
 20
20.648530
 11
55.761840
 21
26.068530
  0
LINE
  8
18
  6
CONTINUOUS
 10
55.381840
 20
20.268530
 11
55.381840
 21
20.648530
  0
LINE
  8
18
  6
CONTINUOUS
 10
55.761840
 20
20.268530
 11
55.761840
 21
20.648530
  0
LINE
  8
18
  6
CONTINUOUS
 10
58.561840
 20
26.508530
 11
58.561840
 21
29.468530
  0
LINE
  8
18
  6
CONTINUOUS
 10
58.941840
 20
26.508530
 11
58.941840
 21
29.468530
  0
LINE
  8
18
  6
CONTINUOUS
 10
58.561840
 20
29.468530
 11
58.561840
 21
31.288530
  0
LINE
  8
18
  6
CONTINUOUS
 10
58.941840
 20
29.468530
 11
58.941840
 21
31.288530
  0
LINE
  8
18
  6
CONTINUOUS
 10
58.561840
 20
26.068530
 11
58.561840
 21
26.508530
  0
LINE
  8
18
  6
CONTINUOUS
 10
58.941840
 20
26.068530
 11
58.941840
 21
26.508530
  0
LINE
  8
18
  6
CONTINUOUS
 10
58.561840
 20
31.288530
 11
58.561840
 21
31.668530
  0
LINE
  8
18
  6
CONTINUOUS
 10
58.941840
 20
31.288530
 11
58.941840
 21
31.668530
  0
LINE
  8
18
  6
CONTINUOUS
 10
62.921840
 20
31.668530
 11
62.921840
 21
31.478530
  0
LINE
  8
18
  6
CONTINUOUS
 10
63.361840
 20
31.668530
 11
63.361840
 21
31.478530
  0
LINE
  8
18
  6
CONTINUOUS
 10
62.921840
 20
31.478530
 11
62.921840
 21
32.944097
  0
LINE
  8
18
  6
CONTINUOUS
 10
63.361840
 20
31.478530
 11
63.361840
 21
32.944097
  0
LINE
  8
18
  6
CONTINUOUS
 10
62.921840
 20
33.324097
 11
62.921840
 21
35.364097
  0
LINE
  8
18
  6
CONTINUOUS
 10
63.361840
 20
33.324097
 11
63.361840
 21
35.364097
  0
LINE
  8
18
  6
CONTINUOUS
 10
62.921840
 20
32.944097
 11
62.921840
 21
33.324097
  0
LINE
  8
18
  6
CONTINUOUS
 10
63.361840
 20
32.944097
 11
63.361840
 21
33.324097
  0
LINE
  8
18
  6
CONTINUOUS
 10
62.921840
 20
35.364097
 11
62.921840
 21
35.744097
  0
LINE
  8
18
  6
CONTINUOUS
 10
63.361840
 20
35.364097
 11
63.361840
 21
35.744097
  0
LINE
  8
18
  6
CONTINUOUS
 10
65.961840
 20
9.488530
 11
65.961840
 21
20.268530
  0
LINE
  8
18
  6
CONTINUOUS
 10
66.341840
 20
9.488530
 11
66.341840
 21
20.268530
  0
LINE
  8
18
  6
CONTINUOUS
 10
65.961840
 20
20.648530
 11
65.961840
 21
21.068530
  0
LINE
  8
18
  6
CONTINUOUS
 10
66.341840
 20
20.648530
 11
66.341840
 21
21.068530
  0
LINE
  8
18
  6
CONTINUOUS
 10
65.961840
 20
23.468530
 11
65.961840
 21
32.944097
  0
LINE
  8
18
  6
CONTINUOUS
 10
66.341840
 20
23.468530
 11
66.341840
 21
32.944097
  0
LINE
  8
18
  6
CONTINUOUS
 10
65.961840
 20
20.268530
 11
65.961840
 21
20.648530
  0
LINE
  8
18
  6
CONTINUOUS
 10
66.341840
 20
20.268530
 11
66.341840
 21
20.648530
  0
LINE
  8
18
  6
CONTINUOUS
 10
65.961840
 20
32.944097
 11
65.961840
 21
33.324097
  0
LINE
  8
18
  6
CONTINUOUS
 10
66.341840
 20
32.944097
 11
66.341840
 21
33.324097
  0
LINE
  8
18
  6
CONTINUOUS
 10
65.961840
 20
35.744097
 11
65.961840
 21
44.188493
  0
LINE
  8
18
  6
CONTINUOUS
 10
66.341840
 20
35.744097
 11
66.341840
 21
44.188493
  0
LINE
  8
18
  6
CONTINUOUS
 10
65.961843
 20
44.187348
 11
65.957229
 21
44.952952
  0
LINE
  8
18
  6
CONTINUOUS
 10
66.341837
 20
44.189638
 11
66.338013
 21
43.344097
  0
LINE
  8
18
  6
CONTINUOUS
 10
65.961840
 20
35.364097
 11
65.961840
 21
35.744097
  0
LINE
  8
18
  6
CONTINUOUS
 10
66.341840
 20
35.364097
 11
66.341840
 21
35.744097
  0
LINE
  8
18
  6
CONTINUOUS
 10
70.181840
 20
33.324097
 11
70.181840
 21
35.364097
  0
LINE
  8
18
  6
CONTINUOUS
 10
70.561840
 20
33.324097
 11
70.561840
 21
35.364097
  0
LINE
  8
18
  6
CONTINUOUS
 10
70.181840
 20
35.744097
 11
70.181840
 21
44.764097
  0
LINE
  8
18
  6
CONTINUOUS
 10
70.561840
 20
35.744097
 11
70.561840
 21
44.764097
  0
LINE
  8
18
  6
CONTINUOUS
 10
70.181840
 20
35.364097
 11
70.181840
 21
35.744097
  0
LINE
  8
18
  6
CONTINUOUS
 10
70.561840
 20
35.364097
 11
70.561840
 21
35.744097
  0
LINE
  8
18
  6
CONTINUOUS
 10
70.181840
 20
44.764097
 11
70.181840
 21
45.144097
  0
LINE
  8
18
  6
CONTINUOUS
 10
70.561840
 20
44.764097
 11
70.561840
 21
45.144097
  0
LINE
  8
18
  6
CONTINUOUS
 10
71.381840
 20
7.468530
 11
71.381840
 21
10.344097
  0
LINE
  8
18
  6
CONTINUOUS
 10
71.761840
 20
7.468530
 11
71.761840
 21
10.344097
  0
LINE
  8
18
  6
CONTINUOUS
 10
71.381840
 20
10.724097
 11
71.381840
 21
17.944097
  0
LINE
  8
18
  6
CONTINUOUS
 10
71.761840
 20
10.724097
 11
71.761840
 21
17.944097
  0
LINE
  8
18
  6
CONTINUOUS
 10
71.381840
 20
18.324097
 11
71.381840
 21
21.468530
  0
LINE
  8
18
  6
CONTINUOUS
 10
71.761840
 20
18.324097
 11
71.761840
 21
21.468530
  0
LINE
  8
18
  6
CONTINUOUS
 10
71.381840
 20
21.468530
 11
71.381840
 21
21.468530
  0
LINE
  8
18
  6
CONTINUOUS
 10
71.761840
 20
21.468530
 11
71.761840
 21
21.468530
  0
LINE
  8
18
  6
CONTINUOUS
 10
71.381840
 20
7.088530
 11
71.381840
 21
7.468530
  0
LINE
  8
18
  6
CONTINUOUS
 10
71.761840
 20
7.088530
 11
71.761840
 21
7.468530
  0
LINE
  8
18
  6
CONTINUOUS
 10
71.381840
 20
10.344097
 11
71.381840
 21
10.724097
  0
LINE
  8
18
  6
CONTINUOUS
 10
71.761840
 20
10.344097
 11
71.761840
 21
10.724097
  0
LINE
  8
18
  6
CONTINUOUS
 10
71.381840
 20
17.944097
 11
71.381840
 21
18.324097
  0
LINE
  8
18
  6
CONTINUOUS
 10
71.761840
 20
17.944097
 11
71.761840
 21
18.324097
  0
LINE
  8
18
  6
CONTINUOUS
 10
76.981840
 20
12.544097
 11
76.981840
 21
17.944097
  0
LINE
  8
18
  6
CONTINUOUS
 10
77.361840
 20
12.544097
 11
77.361840
 21
17.944097
  0
LINE
  8
18
  6
CONTINUOUS
 10
76.981840
 20
17.944097
 11
76.981840
 21
18.324097
  0
LINE
  8
18
  6
CONTINUOUS
 10
77.361840
 20
17.944097
 11
77.361840
 21
18.324097
  0
LINE
  8
18
  6
CONTINUOUS
 10
77.407591
 20
36.944097
 11
77.407591
 21
36.944097
  0
LINE
  8
18
  6
CONTINUOUS
 10
77.787591
 20
36.944097
 11
77.787591
 21
36.944097
  0
LINE
  8
18
  6
CONTINUOUS
 10
77.191052
 20
44.444097
 11
77.191052
 21
44.954097
  0
LINE
  8
18
  6
CONTINUOUS
 10
76.691052
 20
44.444097
 11
76.691052
 21
44.954097
  0
LINE
  8
18
  6
CONTINUOUS
 10
77.191052
 20
44.954097
 11
77.191052
 21
41.220538
  0
LINE
  8
18
  6
CONTINUOUS
 10
76.691052
 20
44.954097
 11
76.691052
 21
41.133674
  0
LINE
  8
18
  6
CONTINUOUS
 10
77.191052
 20
41.220538
 11
77.980005
 21
39.018417
  0
LINE
  8
18
  6
CONTINUOUS
 10
76.691052
 20
41.133674
 11
77.407591
 21
39.133673
  0
LINE
  8
18
  6
CONTINUOUS
 10
80.981840
 20
18.544097
 11
80.981840
 21
24.364097
  0
LINE
  8
18
  6
CONTINUOUS
 10
81.361840
 20
18.544097
 11
81.361840
 21
24.364097
  0
LINE
  8
18
  6
CONTINUOUS
 10
80.981840
 20
24.744097
 11
80.981840
 21
32.944097
  0
LINE
  8
18
  6
CONTINUOUS
 10
81.361840
 20
24.744097
 11
81.361840
 21
32.944097
  0
LINE
  8
18
  6
CONTINUOUS
 10
80.981840
 20
24.364097
 11
80.981840
 21
24.744097
  0
LINE
  8
18
  6
CONTINUOUS
 10
81.361840
 20
24.364097
 11
81.361840
 21
24.744097
  0
LINE
  8
18
  6
CONTINUOUS
 10
80.981840
 20
32.944097
 11
80.981840
 21
33.324097
  0
LINE
  8
18
  6
CONTINUOUS
 10
81.361840
 20
32.944097
 11
81.361840
 21
33.324097
  0
LINE
  8
18
  6
CONTINUOUS
 10
85.227591
 20
33.444097
 11
85.227591
 21
38.744097
  0
LINE
  8
18
  6
CONTINUOUS
 10
85.607591
 20
33.444097
 11
85.607591
 21
38.744097
  0
LINE
  8
18
  6
CONTINUOUS
 10
85.227591
 20
38.744097
 11
85.227591
 21
39.124097
  0
LINE
  8
18
  6
CONTINUOUS
 10
85.607591
 20
38.744097
 11
85.607591
 21
39.124097
  0
LINE
  8
18
  6
CONTINUOUS
 10
89.348654
 20
39.244097
 11
86.767486
 21
46.444097
  0
LINE
  8
18
  6
CONTINUOUS
 10
89.752335
 20
39.244097
 11
86.991919
 21
46.944097
  0
LINE
  8
18
  6
CONTINUOUS
 10
41.361840
 20
26.568530
 11
41.361840
 21
26.468530
  0
LINE
  8
18
  6
CONTINUOUS
 10
41.741840
 20
26.568530
 11
41.741840
 21
26.468530
  0
LINE
  8
18
  6
CONTINUOUS
 10
41.361840
 20
26.468530
 11
41.361840
 21
30.868530
  0
LINE
  8
18
  6
CONTINUOUS
 10
41.741840
 20
26.468530
 11
41.741840
 21
30.868530
  0
LINE
  8
18
  6
CONTINUOUS
 10
41.361840
 20
30.868530
 11
41.361840
 21
30.868530
  0
LINE
  8
18
  6
CONTINUOUS
 10
41.741840
 20
30.868530
 11
41.741840
 21
30.868530
  0
LINE
  8
2
  6
CONTINUOUS
 10
14.181763
 20
46.694097
 11
14.181763
 21
46.694097
  0
POLYLINE
  8
2
  6
CONTINUOUS
 66
     1
  0
VERTEX
  8
2
  6
CONTINUOUS
 10
13.331763
 20
46.944097
  0
VERTEX
  8
2
  6
CONTINUOUS
 10
13.331763
 20
46.444097
  0
VERTEX
  8
2
  6
CONTINUOUS
 10
15.031763
 20
46.444097
  0
VERTEX
  8
2
  6
CONTINUOUS
 10
15.031763
 20
46.944097
  0
VERTEX
  8
2
  6
CONTINUOUS
 10
13.331763
 20
46.944097
  0
SEQEND
  8
2
  6
CONTINUOUS
  0
LINE
  8
2
  6
CONTINUOUS
 10
23.362628
 20
45.694097
 11
23.362628
 21
45.694097
  0
POLYLINE
  8
2
  6
CONTINUOUS
 66
     1
  0
VERTEX
  8
2
  6
CONTINUOUS
 10
23.092628
 20
44.444097
  0
VERTEX
  8
2
  6
CONTINUOUS
 10
23.632628
 20
44.444097
  0
VERTEX
  8
2
  6
CONTINUOUS
 10
23.632628
 20
46.944097
  0
VERTEX
  8
2
  6
CONTINUOUS
 10
23.092628
 20
46.944097
  0
VERTEX
  8
2
  6
CONTINUOUS
 10
23.092628
 20
44.444097
  0
SEQEND
  8
2
  6
CONTINUOUS
  0
LINE
  8
2
  6
CONTINUOUS
 10
76.961052
 20
45.694097
 11
76.961052
 21
45.694097
  0
POLYLINE
  8
2
  6
CONTINUOUS
 66
     1
  0
VERTEX
  8
2
  6
CONTINUOUS
 10
76.691052
 20
44.444097
  0
VERTEX
  8
2
  6
CONTINUOUS
 10
77.231052
 20
44.444097
  0
VERTEX
  8
2
  6
CONTINUOUS
 10
77.231052
 20
46.944097
  0
VERTEX
  8
2
  6
CONTINUOUS
 10
76.691052
 20
46.944097
  0
VERTEX
  8
2
  6
CONTINUOUS
 10
76.691052
 20
44.444097
  0
SEQEND
  8
2
  6
CONTINUOUS
  0
LINE
  8
2
  6
CONTINUOUS
 10
86.141917
 20
46.694097
 11
86.141917
 21
46.694097
  0
POLYLINE
  8
2
  6
CONTINUOUS
 66
     1
  0
VERTEX
  8
2
  6
CONTINUOUS
 10
86.991917
 20
46.444097
  0
VERTEX
  8
2
  6
CONTINUOUS
 10
86.991917
 20
46.944097
  0
VERTEX
  8
2
  6
CONTINUOUS
 10
85.291917
 20
46.944097
  0
VERTEX
  8
2
  6
CONTINUOUS
 10
85.291917
 20
46.444097
  0
VERTEX
  8
2
  6
CONTINUOUS
 10
86.991917
 20
46.444097
  0
SEQEND
  8
2
  6
CONTINUOUS
  0
LINE
  8
2
  6
CONTINUOUS
 10
34.111840
 20
44.244097
 11
34.111840
 21
44.244097
  0
POLYLINE
  8
2
  6
CONTINUOUS
 66
     1
  0
VERTEX
  8
2
  6
CONTINUOUS
 10
34.361840
 20
45.144097
  0
VERTEX
  8
2
  6
CONTINUOUS
 10
33.861840
 20
45.144097
  0
VERTEX
  8
2
  6
CONTINUOUS
 10
33.861840
 20
43.344097
  0
VERTEX
  8
2
  6
CONTINUOUS
 10
34.361840
 20
43.344097
  0
VERTEX
  8
2
  6
CONTINUOUS
 10
34.361840
 20
45.144097
  0
SEQEND
  8
2
  6
CONTINUOUS
  0
LINE
  8
2
  6
CONTINUOUS
 10
66.211840
 20
44.244097
 11
66.211840
 21
44.244097
  0
POLYLINE
  8
2
  6
CONTINUOUS
 66
     1
  0
VERTEX
  8
2
  6
CONTINUOUS
 10
65.961840
 20
43.344097
  0
VERTEX
  8
2
  6
CONTINUOUS
 10
66.461840
 20
43.344097
  0
VERTEX
  8
2
  6
CONTINUOUS
 10
66.461840
 20
45.144097
  0
VERTEX
  8
2
  6
CONTINUOUS
 10
65.961840
 20
45.144097
  0
VERTEX
  8
2
  6
CONTINUOUS
 10
65.961840
 20
43.344097
  0
SEQEND
  8
2
  6
CONTINUOUS
  0
LINE
  8
2
  6
CONTINUOUS
 10
11.235490
 20
38.994097
 11
11.235490
 21
38.994097
  0
POLYLINE
  8
2
  6
CONTINUOUS
 66
     1
  0
VERTEX
  8
2
  6
CONTINUOUS
 10
10.535490
 20
39.244097
  0
VERTEX
  8
2
  6
CONTINUOUS
 10
10.535490
 20
38.744097
  0
VERTEX
  8
2
  6
CONTINUOUS
 10
11.935490
 20
38.744097
  0
VERTEX
  8
2
  6
CONTINUOUS
 10
11.935490
 20
39.244097
  0
VERTEX
  8
2
  6
CONTINUOUS
 10
10.535490
 20
39.244097
  0
SEQEND
  8
2
  6
CONTINUOUS
  0
LINE
  8
2
  6
CONTINUOUS
 10
89.088190
 20
38.994097
 11
89.088190
 21
38.994097
  0
POLYLINE
  8
2
  6
CONTINUOUS
 66
     1
  0
VERTEX
  8
2
  6
CONTINUOUS
 10
89.788190
 20
38.744097
  0
VERTEX
  8
2
  6
CONTINUOUS
 10
89.788190
 20
39.244097
  0
VERTEX
  8
2
  6
CONTINUOUS
 10
88.388190
 20
39.244097
  0
VERTEX
  8
2
  6
CONTINUOUS
 10
88.388190
 20
38.744097
  0
VERTEX
  8
2
  6
CONTINUOUS
 10
89.788190
 20
38.744097
  0
SEQEND
  8
2
  6
CONTINUOUS
  0
LINE
  8
2
  6
CONTINUOUS
 10
22.666089
 20
38.044097
 11
22.666089
 21
38.044097
  0
POLYLINE
  8
2
  6
CONTINUOUS
 66
     1
  0
VERTEX
  8
2
  6
CONTINUOUS
 10
22.416089
 20
36.944097
  0
VERTEX
  8
2
  6
CONTINUOUS
 10
22.916089
 20
36.944097
  0
VERTEX
  8
2
  6
CONTINUOUS
 10
22.916089
 20
39.144097
  0
VERTEX
  8
2
  6
CONTINUOUS
 10
22.416089
 20
39.144097
  0
VERTEX
  8
2
  6
CONTINUOUS
 10
22.416089
 20
36.944097
  0
SEQEND
  8
2
  6
CONTINUOUS
  0
LINE
  8
2
  6
CONTINUOUS
 10
77.657591
 20
38.044097
 11
77.657591
 21
38.044097
  0
POLYLINE
  8
2
  6
CONTINUOUS
 66
     1
  0
VERTEX
  8
2
  6
CONTINUOUS
 10
77.407591
 20
36.944097
  0
VERTEX
  8
2
  6
CONTINUOUS
 10
77.907591
 20
36.944097
  0
VERTEX
  8
2
  6
CONTINUOUS
 10
77.907591
 20
39.144097
  0
VERTEX
  8
2
  6
CONTINUOUS
 10
77.407591
 20
39.144097
  0
VERTEX
  8
2
  6
CONTINUOUS
 10
77.407591
 20
36.944097
  0
SEQEND
  8
2
  6
CONTINUOUS
  0
LINE
  8
2
  6
CONTINUOUS
 10
15.516089
 20
33.194097
 11
15.516089
 21
33.194097
  0
POLYLINE
  8
2
  6
CONTINUOUS
 66
     1
  0
VERTEX
  8
2
  6
CONTINUOUS
 10
16.316089
 20
32.944097
  0
VERTEX
  8
2
  6
CONTINUOUS
 10
16.316089
 20
33.444097
  0
VERTEX
  8
2
  6
CONTINUOUS
 10
14.716089
 20
33.444097
  0
VERTEX
  8
2
  6
CONTINUOUS
 10
14.716089
 20
32.944097
  0
VERTEX
  8
2
  6
CONTINUOUS
 10
16.316089
 20
32.944097
  0
SEQEND
  8
2
  6
CONTINUOUS
  0
LINE
  8
2
  6
CONTINUOUS
 10
28.961840
 20
33.024097
 11
28.961840
 21
33.024097
  0
POLYLINE
  8
2
  6
CONTINUOUS
 66
     1
  0
VERTEX
  8
2
  6
CONTINUOUS
 10
30.161840
 20
32.724097
  0
VERTEX
  8
2
  6
CONTINUOUS
 10
30.161840
 20
33.324097
  0
VERTEX
  8
2
  6
CONTINUOUS
 10
27.761840
 20
33.324097
  0
VERTEX
  8
2
  6
CONTINUOUS
 10
27.761840
 20
32.724097
  0
VERTEX
  8
2
  6
CONTINUOUS
 10
30.161840
 20
32.724097
  0
SEQEND
  8
2
  6
CONTINUOUS
  0
LINE
  8
2
  6
CONTINUOUS
 10
71.381840
 20
33.024097
 11
71.381840
 21
33.024097
  0
POLYLINE
  8
2
  6
CONTINUOUS
 66
     1
  0
VERTEX
  8
2
  6
CONTINUOUS
 10
70.181840
 20
33.324097
  0
VERTEX
  8
2
  6
CONTINUOUS
 10
70.181840
 20
32.724097
  0
VERTEX
  8
2
  6
CONTINUOUS
 10
72.581840
 20
32.724097
  0
VERTEX
  8
2
  6
CONTINUOUS
 10
72.581840
 20
33.324097
  0
VERTEX
  8
2
  6
CONTINUOUS
 10
70.181840
 20
33.324097
  0
SEQEND
  8
2
  6
CONTINUOUS
  0
LINE
  8
2
  6
CONTINUOUS
 10
84.807592
 20
33.194097
 11
84.807592
 21
33.194097
  0
POLYLINE
  8
2
  6
CONTINUOUS
 66
     1
  0
VERTEX
  8
2
  6
CONTINUOUS
 10
85.607592
 20
32.944097
  0
VERTEX
  8
2
  6
CONTINUOUS
 10
85.607592
 20
33.444097
  0
VERTEX
  8
2
  6
CONTINUOUS
 10
84.007592
 20
33.444097
  0
VERTEX
  8
2
  6
CONTINUOUS
 10
84.007592
 20
32.944097
  0
VERTEX
  8
2
  6
CONTINUOUS
 10
85.607592
 20
32.944097
  0
SEQEND
  8
2
  6
CONTINUOUS
  0
LINE
  8
2
  6
CONTINUOUS
 10
41.611840
 20
31.668530
 11
41.611840
 21
31.668530
  0
POLYLINE
  8
2
  6
CONTINUOUS
 66
     1
  0
VERTEX
  8
2
  6
CONTINUOUS
 10
41.861840
 20
32.468530
  0
VERTEX
  8
2
  6
CONTINUOUS
 10
41.361840
 20
32.468530
  0
VERTEX
  8
2
  6
CONTINUOUS
 10
41.361840
 20
30.868530
  0
VERTEX
  8
2
  6
CONTINUOUS
 10
41.861840
 20
30.868530
  0
VERTEX
  8
2
  6
CONTINUOUS
 10
41.861840
 20
32.468530
  0
SEQEND
  8
2
  6
CONTINUOUS
  0
LINE
  8
2
  6
CONTINUOUS
 10
52.401840
 20
32.218530
 11
52.401840
 21
32.218530
  0
POLYLINE
  8
2
  6
CONTINUOUS
 66
     1
  0
VERTEX
  8
2
  6
CONTINUOUS
 10
53.201840
 20
31.968530
  0
VERTEX
  8
2
  6
CONTINUOUS
 10
53.201840
 20
32.468530
  0
VERTEX
  8
2
  6
CONTINUOUS
 10
51.601840
 20
32.468530
  0
VERTEX
  8
2
  6
CONTINUOUS
 10
51.601840
 20
31.968530
  0
VERTEX
  8
2
  6
CONTINUOUS
 10
53.201840
 20
31.968530
  0
SEQEND
  8
2
  6
CONTINUOUS
  0
LINE
  8
2
  6
CONTINUOUS
 10
37.211840
 20
28.868530
 11
37.211840
 21
28.868530
  0
POLYLINE
  8
2
  6
CONTINUOUS
 66
     1
  0
VERTEX
  8
2
  6
CONTINUOUS
 10
36.961840
 20
26.068530
  0
VERTEX
  8
2
  6
CONTINUOUS
 10
37.461840
 20
26.068530
  0
VERTEX
  8
2
  6
CONTINUOUS
 10
37.461840
 20
31.668530
  0
VERTEX
  8
2
  6
CONTINUOUS
 10
36.961840
 20
31.668530
  0
VERTEX
  8
2
  6
CONTINUOUS
 10
36.961840
 20
26.068530
  0
SEQEND
  8
2
  6
CONTINUOUS
  0
LINE
  8
2
  6
CONTINUOUS
 10
63.111840
 20
28.868530
 11
63.111840
 21
28.868530
  0
POLYLINE
  8
2
  6
CONTINUOUS
 66
     1
  0
VERTEX
  8
2
  6
CONTINUOUS
 10
62.861840
 20
26.068530
  0
VERTEX
  8
2
  6
CONTINUOUS
 10
63.361840
 20
26.068530
  0
VERTEX
  8
2
  6
CONTINUOUS
 10
63.361840
 20
31.668530
  0
VERTEX
  8
2
  6
CONTINUOUS
 10
62.861840
 20
31.668530
  0
VERTEX
  8
2
  6
CONTINUOUS
 10
62.861840
 20
26.068530
  0
SEQEND
  8
2
  6
CONTINUOUS
  0
LINE
  8
2
  6
CONTINUOUS
 10
42.561840
 20
26.318530
 11
42.561840
 21
26.318530
  0
POLYLINE
  8
2
  6
CONTINUOUS
 66
     1
  0
VERTEX
  8
2
  6
CONTINUOUS
 10
43.761840
 20
26.068530
  0
VERTEX
  8
2
  6
CONTINUOUS
 10
43.761840
 20
26.568530
  0
VERTEX
  8
2
  6
CONTINUOUS
 10
41.361840
 20
26.568530
  0
VERTEX
  8
2
  6
CONTINUOUS
 10
41.361840
 20
26.068530
  0
VERTEX
  8
2
  6
CONTINUOUS
 10
43.761840
 20
26.068530
  0
SEQEND
  8
2
  6
CONTINUOUS
  0
LINE
  8
2
  6
CONTINUOUS
 10
54.821840
 20
26.338530
 11
54.821840
 21
26.338530
  0
POLYLINE
  8
2
  6
CONTINUOUS
 66
     1
  0
VERTEX
  8
2
  6
CONTINUOUS
 10
53.621840
 20
26.608530
  0
VERTEX
  8
2
  6
CONTINUOUS
 10
53.621840
 20
26.068530
  0
VERTEX
  8
2
  6
CONTINUOUS
 10
56.021840
 20
26.068530
  0
VERTEX
  8
2
  6
CONTINUOUS
 10
56.021840
 20
26.608530
  0
VERTEX
  8
2
  6
CONTINUOUS
 10
53.621840
 20
26.608530
  0
SEQEND
  8
2
  6
CONTINUOUS
  0
LINE
  8
2
  6
CONTINUOUS
 10
28.861840
 20
22.468530
 11
28.861840
 21
22.468530
  0
POLYLINE
  8
2
  6
CONTINUOUS
 66
     1
  0
VERTEX
  8
2
  6
CONTINUOUS
 10
28.561840
 20
21.468530
  0
VERTEX
  8
2
  6
CONTINUOUS
 10
29.161840
 20
21.468530
  0
VERTEX
  8
2
  6
CONTINUOUS
 10
29.161840
 20
23.468530
  0
VERTEX
  8
2
  6
CONTINUOUS
 10
28.561840
 20
23.468530
  0
VERTEX
  8
2
  6
CONTINUOUS
 10
28.561840
 20
21.468530
  0
SEQEND
  8
2
  6
CONTINUOUS
  0
LINE
  8
2
  6
CONTINUOUS
 10
34.281840
 20
22.268530
 11
34.281840
 21
22.268530
  0
POLYLINE
  8
2
  6
CONTINUOUS
 66
     1
  0
VERTEX
  8
2
  6
CONTINUOUS
 10
33.981840
 20
21.068530
  0
VERTEX
  8
2
  6
CONTINUOUS
 10
34.581840
 20
21.068530
  0
VERTEX
  8
2
  6
CONTINUOUS
 10
34.581840
 20
23.468530
  0
VERTEX
  8
2
  6
CONTINUOUS
 10
33.981840
 20
23.468530
  0
VERTEX
  8
2
  6
CONTINUOUS
 10
33.981840
 20
21.068530
  0
SEQEND
  8
2
  6
CONTINUOUS
  0
LINE
  8
2
  6
CONTINUOUS
 10
66.041840
 20
22.268530
 11
66.041840
 21
22.268530
  0
POLYLINE
  8
2
  6
CONTINUOUS
 66
     1
  0
VERTEX
  8
2
  6
CONTINUOUS
 10
65.741840
 20
21.068530
  0
VERTEX
  8
2
  6
CONTINUOUS
 10
66.341840
 20
21.068530
  0
VERTEX
  8
2
  6
CONTINUOUS
 10
66.341840
 20
23.468530
  0
VERTEX
  8
2
  6
CONTINUOUS
 10
65.741840
 20
23.468530
  0
VERTEX
  8
2
  6
CONTINUOUS
 10
65.741840
 20
21.068530
  0
SEQEND
  8
2
  6
CONTINUOUS
  0
LINE
  8
2
  6
CONTINUOUS
 10
71.461840
 20
22.468530
 11
71.461840
 21
22.468530
  0
POLYLINE
  8
2
  6
CONTINUOUS
 66
     1
  0
VERTEX
  8
2
  6
CONTINUOUS
 10
71.161840
 20
21.468530
  0
VERTEX
  8
2
  6
CONTINUOUS
 10
71.761840
 20
21.468530
  0
VERTEX
  8
2
  6
CONTINUOUS
 10
71.761840
 20
23.468530
  0
VERTEX
  8
2
  6
CONTINUOUS
 10
71.161840
 20
23.468530
  0
VERTEX
  8
2
  6
CONTINUOUS
 10
71.161840
 20
21.468530
  0
SEQEND
  8
2
  6
CONTINUOUS
  0
LINE
  8
2
  6
CONTINUOUS
 10
19.761840
 20
18.244097
 11
19.761840
 21
18.244097
  0
POLYLINE
  8
2
  6
CONTINUOUS
 66
     1
  0
VERTEX
  8
2
  6
CONTINUOUS
 10
18.961840
 20
18.544097
  0
VERTEX
  8
2
  6
CONTINUOUS
 10
18.961840
 20
17.944097
  0
VERTEX
  8
2
  6
CONTINUOUS
 10
20.561840
 20
17.944097
  0
VERTEX
  8
2
  6
CONTINUOUS
 10
20.561840
 20
18.544097
  0
VERTEX
  8
2
  6
CONTINUOUS
 10
18.961840
 20
18.544097
  0
SEQEND
  8
2
  6
CONTINUOUS
  0
LINE
  8
2
  6
CONTINUOUS
 10
45.761840
 20
17.838530
 11
45.761840
 21
17.838530
  0
POLYLINE
  8
2
  6
CONTINUOUS
 66
     1
  0
VERTEX
  8
2
  6
CONTINUOUS
 10
46.961840
 20
17.538530
  0
VERTEX
  8
2
  6
CONTINUOUS
 10
46.961840
 20
18.138530
  0
VERTEX
  8
2
  6
CONTINUOUS
 10
44.561840
 20
18.138530
  0
VERTEX
  8
2
  6
CONTINUOUS
 10
44.561840
 20
17.538530
  0
VERTEX
  8
2
  6
CONTINUOUS
 10
46.961840
 20
17.538530
  0
SEQEND
  8
2
  6
CONTINUOUS
  0
LINE
  8
2
  6
CONTINUOUS
 10
54.561840
 20
17.838530
 11
54.561840
 21
17.838530
  0
POLYLINE
  8
2
  6
CONTINUOUS
 66
     1
  0
VERTEX
  8
2
  6
CONTINUOUS
 10
55.761840
 20
17.538530
  0
VERTEX
  8
2
  6
CONTINUOUS
 10
55.761840
 20
18.138530
  0
VERTEX
  8
2
  6
CONTINUOUS
 10
53.361840
 20
18.138530
  0
VERTEX
  8
2
  6
CONTINUOUS
 10
53.361840
 20
17.538530
  0
VERTEX
  8
2
  6
CONTINUOUS
 10
55.761840
 20
17.538530
  0
SEQEND
  8
2
  6
CONTINUOUS
  0
LINE
  8
2
  6
CONTINUOUS
 10
80.561840
 20
18.244097
 11
80.561840
 21
18.244097
  0
POLYLINE
  8
2
  6
CONTINUOUS
 66
     1
  0
VERTEX
  8
2
  6
CONTINUOUS
 10
79.761840
 20
18.544097
  0
VERTEX
  8
2
  6
CONTINUOUS
 10
79.761840
 20
17.944097
  0
VERTEX
  8
2
  6
CONTINUOUS
 10
81.361840
 20
17.944097
  0
VERTEX
  8
2
  6
CONTINUOUS
 10
81.361840
 20
18.544097
  0
VERTEX
  8
2
  6
CONTINUOUS
 10
79.761840
 20
18.544097
  0
SEQEND
  8
2
  6
CONTINUOUS
  0
LINE
  8
2
  6
CONTINUOUS
 10
23.211840
 20
11.244097
 11
23.211840
 21
11.244097
  0
POLYLINE
  8
2
  6
CONTINUOUS
 66
     1
  0
VERTEX
  8
2
  6
CONTINUOUS
 10
23.461840
 20
12.144097
  0
VERTEX
  8
2
  6
CONTINUOUS
 10
22.961840
 20
12.144097
  0
VERTEX
  8
2
  6
CONTINUOUS
 10
22.961840
 20
10.344097
  0
VERTEX
  8
2
  6
CONTINUOUS
 10
23.461840
 20
10.344097
  0
VERTEX
  8
2
  6
CONTINUOUS
 10
23.461840
 20
12.144097
  0
SEQEND
  8
2
  6
CONTINUOUS
  0
LINE
  8
2
  6
CONTINUOUS
 10
77.111840
 20
11.444097
 11
77.111840
 21
11.444097
  0
POLYLINE
  8
2
  6
CONTINUOUS
 66
     1
  0
VERTEX
  8
2
  6
CONTINUOUS
 10
76.861840
 20
10.344097
  0
VERTEX
  8
2
  6
CONTINUOUS
 10
77.361840
 20
10.344097
  0
VERTEX
  8
2
  6
CONTINUOUS
 10
77.361840
 20
12.544097
  0
VERTEX
  8
2
  6
CONTINUOUS
 10
76.861840
 20
12.544097
  0
VERTEX
  8
2
  6
CONTINUOUS
 10
76.861840
 20
10.344097
  0
SEQEND
  8
2
  6
CONTINUOUS
  0
LINE
  8
2
  6
CONTINUOUS
 10
34.091840
 20
8.288530
 11
34.091840
 21
8.288530
  0
POLYLINE
  8
2
  6
CONTINUOUS
 66
     1
  0
VERTEX
  8
2
  6
CONTINUOUS
 10
34.361840
 20
9.488530
  0
VERTEX
  8
2
  6
CONTINUOUS
 10
33.821840
 20
9.488530
  0
VERTEX
  8
2
  6
CONTINUOUS
 10
33.821840
 20
7.088530
  0
VERTEX
  8
2
  6
CONTINUOUS
 10
34.361840
 20
7.088530
  0
VERTEX
  8
2
  6
CONTINUOUS
 10
34.361840
 20
9.488530
  0
SEQEND
  8
2
  6
CONTINUOUS
  0
LINE
  8
2
  6
CONTINUOUS
 10
44.711840
 20
8.288530
 11
44.711840
 21
8.288530
  0
POLYLINE
  8
2
  6
CONTINUOUS
 66
     1
  0
VERTEX
  8
2
  6
CONTINUOUS
 10
44.981840
 20
9.488530
  0
VERTEX
  8
2
  6
CONTINUOUS
 10
44.441840
 20
9.488530
  0
VERTEX
  8
2
  6
CONTINUOUS
 10
44.441840
 20
7.088530
  0
VERTEX
  8
2
  6
CONTINUOUS
 10
44.981840
 20
7.088530
  0
VERTEX
  8
2
  6
CONTINUOUS
 10
44.981840
 20
9.488530
  0
SEQEND
  8
2
  6
CONTINUOUS
  0
LINE
  8
2
  6
CONTINUOUS
 10
55.611840
 20
8.288530
 11
55.611840
 21
8.288530
  0
POLYLINE
  8
2
  6
CONTINUOUS
 66
     1
  0
VERTEX
  8
2
  6
CONTINUOUS
 10
55.341840
 20
7.088530
  0
VERTEX
  8
2
  6
CONTINUOUS
 10
55.881840
 20
7.088530
  0
VERTEX
  8
2
  6
CONTINUOUS
 10
55.881840
 20
9.488530
  0
VERTEX
  8
2
  6
CONTINUOUS
 10
55.341840
 20
9.488530
  0
VERTEX
  8
2
  6
CONTINUOUS
 10
55.341840
 20
7.088530
  0
SEQEND
  8
2
  6
CONTINUOUS
  0
LINE
  8
2
  6
CONTINUOUS
 10
66.231840
 20
8.288530
 11
66.231840
 21
8.288530
  0
POLYLINE
  8
2
  6
CONTINUOUS
 66
     1
  0
VERTEX
  8
2
  6
CONTINUOUS
 10
65.961840
 20
7.088530
  0
VERTEX
  8
2
  6
CONTINUOUS
 10
66.501840
 20
7.088530
  0
VERTEX
  8
2
  6
CONTINUOUS
 10
66.501840
 20
9.488530
  0
VERTEX
  8
2
  6
CONTINUOUS
 10
65.961840
 20
9.488530
  0
VERTEX
  8
2
  6
CONTINUOUS
 10
65.961840
 20
7.088530
  0
SEQEND
  8
2
  6
CONTINUOUS
  0
LINE
  8
18
  6
CONTINUOUS
 10
44.361840
 20
26.508530
 11
44.361840
 21
32.047730
  0
LINE
  8
18
  6
CONTINUOUS
 10
44.361840
 20
32.047730
 11
41.861840
 21
32.047730
  0
LINE
  8
18
  6
CONTINUOUS
 10
58.561840
 20
29.468530
 11
55.921840
 21
29.468530
  0
LINE
  8
18
  6
CONTINUOUS
 10
55.921840
 20
29.468530
 11
55.921840
 21
31.288530
  0
LINE
  8
18
  6
CONTINUOUS
 10
50.151840
 20
29.268130
 11
47.161840
 21
29.268130
  0
LINE
  8
18
  6
CONTINUOUS
 10
47.161840
 20
29.268130
 11
47.161840
 21
26.508530
  0
LINE
  8
18
  6
CONTINUOUS
 10
44.368696
 20
26.508530
 11
47.168696
 21
26.508530
  0
LINE
  8
18
  6
CONTINUOUS
 10
47.161948
 20
26.508530
 11
47.169407
 21
29.268130
  0
LINE
  8
18
  6
CONTINUOUS
 10
47.169407
 20
29.268130
 11
44.361840
 21
29.268130
  0
LINE
  8
18
  6
CONTINUOUS
 10
44.361840
 20
29.268130
 11
44.361840
 21
26.508530
  0
LINE
  8
18
  6
CONTINUOUS
 10
44.361840
 20
29.268130
 11
50.151840
 21
29.268130
  0
LINE
  8
18
  6
CONTINUOUS
 10
50.151840
 20
32.067730
 11
44.361840
 21
32.067730
  0
LINE
  8
18
  6
CONTINUOUS
 10
44.361840
 20
32.067730
 11
44.361840
 21
32.047730
  0
LINE
  8
18
  6
CONTINUOUS
 10
44.361840
 20
32.047730
 11
44.361840
 21
29.268130
  0
POLYLINE
  8
2
  6
CONTINUOUS
 66
     1
  0
VERTEX
  8
2
  6
CONTINUOUS
 10
38.961840
 20
21.868530
  0
VERTEX
  8
2
  6
CONTINUOUS
 10
38.961840
 20
20.648530
  0
VERTEX
  8
2
  6
CONTINUOUS
 10
44.561840
 20
20.648530
  0
VERTEX
  8
2
  6
CONTINUOUS
 10
44.561840
 20
21.868530
  0
VERTEX
  8
2
  6
CONTINUOUS
 10
38.961840
 20
21.868530
  0
SEQEND
  8
2
  6
CONTINUOUS
  0
LINE
  8
2
  6
CONTINUOUS
 10
38.961840
 20
21.868530
 11
44.561840
 21
20.648530
  0
LINE
  8
2
  6
CONTINUOUS
 10
38.961840
 20
20.648530
 11
44.561840
 21
21.868530
  0
POLYLINE
  8
2
  6
CONTINUOUS
 66
     1
  0
VERTEX
  8
2
  6
CONTINUOUS
 10
61.361840
 20
21.868530
  0
VERTEX
  8
2
  6
CONTINUOUS
 10
55.761840
 20
21.868530
  0
VERTEX
  8
2
  6
CONTINUOUS
 10
55.761840
 20
20.648530
  0
VERTEX
  8
2
  6
CONTINUOUS
 10
61.361840
 20
20.648530
  0
VERTEX
  8
2
  6
CONTINUOUS
 10
61.361840
 20
21.868530
  0
SEQEND
  8
2
  6
CONTINUOUS
  0
LINE
  8
2
  6
CONTINUOUS
 10
61.361840
 20
21.868530
 11
55.761840
 21
20.648530
  0
LINE
  8
2
  6
CONTINUOUS
 10
55.761840
 20
21.868530
 11
61.361840
 21
20.648530
  0
POLYLINE
  8
2
  6
CONTINUOUS
 66
     1
  0
VERTEX
  8
2
  6
CONTINUOUS
 10
47.561840
 20
20.468530
  0
VERTEX
  8
2
  6
CONTINUOUS
 10
47.561840
 20
19.268530
  0
VERTEX
  8
2
  6
CONTINUOUS
 10
52.761840
 20
19.268530
  0
VERTEX
  8
2
  6
CONTINUOUS
 10
52.761840
 20
20.468530
  0
VERTEX
  8
2
  6
CONTINUOUS
 10
47.561840
 20
20.468530
  0
SEQEND
  8
2
  6
CONTINUOUS
  0
LINE
  8
2
  6
CONTINUOUS
 10
47.561840
 20
20.468530
 11
52.761840
 21
19.268530
  0
LINE
  8
2
  6
CONTINUOUS
 10
47.561840
 20
19.268530
 11
52.761840
 21
20.468530
  0
POLYLINE
  8
2
  6
CONTINUOUS
 66
     1
  0
VERTEX
  8
2
  6
CONTINUOUS
 10
31.561840
 20
20.268530
  0
VERTEX
  8
2
  6
CONTINUOUS
 10
31.561840
 20
19.068530
  0
VERTEX
  8
2
  6
CONTINUOUS
 10
33.981840
 20
19.068530
  0
VERTEX
  8
2
  6
CONTINUOUS
 10
33.981840
 20
20.268530
  0
VERTEX
  8
2
  6
CONTINUOUS
 10
31.561840
 20
20.268530
  0
SEQEND
  8
2
  6
CONTINUOUS
  0
LINE
  8
2
  6
CONTINUOUS
 10
31.561840
 20
20.268530
 11
33.981840
 21
19.068530
  0
LINE
  8
2
  6
CONTINUOUS
 10
31.561840
 20
19.068530
 11
33.981840
 21
20.268530
  0
POLYLINE
  8
2
  6
CONTINUOUS
 66
     1
  0
VERTEX
  8
2
  6
CONTINUOUS
 10
68.761840
 20
20.268530
  0
VERTEX
  8
2
  6
CONTINUOUS
 10
66.341840
 20
20.268530
  0
VERTEX
  8
2
  6
CONTINUOUS
 10
66.341840
 20
19.068530
  0
VERTEX
  8
2
  6
CONTINUOUS
 10
68.761840
 20
19.068530
  0
VERTEX
  8
2
  6
CONTINUOUS
 10
68.761840
 20
20.268530
  0
SEQEND
  8
2
  6
CONTINUOUS
  0
LINE
  8
2
  6
CONTINUOUS
 10
68.761840
 20
20.268530
 11
66.341840
 21
19.068530
  0
LINE
  8
2
  6
CONTINUOUS
 10
66.341840
 20
20.268530
 11
68.761840
 21
19.068530
  0
POLYLINE
  8
2
  6
CONTINUOUS
 66
     1
  0
VERTEX
  8
2
  6
CONTINUOUS
 10
49.005297
 20
15.214079
  0
VERTEX
  8
2
  6
CONTINUOUS
 10
49.005297
 20
17.332160
  0
VERTEX
  8
2
  6
CONTINUOUS
 10
49.870956
 20
17.954704
  0
VERTEX
  8
2
  6
CONTINUOUS
 10
49.688779
 20
17.783497
  0
VERTEX
  8
2
  6
CONTINUOUS
 10
49.870956
 20
17.954704
  0
VERTEX
  8
2
  6
CONTINUOUS
 10
49.650675
 20
17.836482
  0
SEQEND
  8
2
  6
CONTINUOUS
  0
POLYLINE
  8
2
  6
CONTINUOUS
 66
     1
  0
VERTEX
  8
2
  6
CONTINUOUS
 10
10.880698
 20
44.086935
  0
VERTEX
  8
2
  6
CONTINUOUS
 10
10.880698
 20
41.587477
  0
VERTEX
  8
2
  6
CONTINUOUS
 10
11.419497
 20
40.164081
  0
VERTEX
  8
2
  6
CONTINUOUS
 10
11.301232
 20
40.384339
  0
VERTEX
  8
2
  6
CONTINUOUS
 10
11.419497
 20
40.164081
  0
VERTEX
  8
2
  6
CONTINUOUS
 10
11.362268
 20
40.407443
  0
SEQEND
  8
2
  6
CONTINUOUS
  0
POLYLINE
  8
2
  6
CONTINUOUS
 66
     1
  0
VERTEX
  8
2
  6
CONTINUOUS
 10
87.724350
 20
42.562907
  0
VERTEX
  8
2
  6
CONTINUOUS
 10
87.724350
 20
40.024096
  0
VERTEX
  8
2
  6
CONTINUOUS
 10
88.734557
 20
39.798129
  0
VERTEX
  8
2
  6
CONTINUOUS
 10
88.485550
 20
39.820390
  0
VERTEX
  8
2
  6
CONTINUOUS
 10
88.734557
 20
39.798129
  0
VERTEX
  8
2
  6
CONTINUOUS
 10
88.499796
 20
39.884079
  0
SEQEND
  8
2
  6
CONTINUOUS
  0
POLYLINE
  8
2
  6
CONTINUOUS
 66
     1
  0
VERTEX
  8
2
  6
CONTINUOUS
 10
46.772380
 20
22.796250
  0
VERTEX
  8
2
  6
CONTINUOUS
 10
46.772380
 20
20.920781
  0
VERTEX
  8
2
  6
CONTINUOUS
 10
46.995844
 20
20.303550
  0
VERTEX
  8
2
  6
CONTINUOUS
 10
46.903796
 20
20.481110
  0
VERTEX
  8
2
  6
CONTINUOUS
 10
46.995844
 20
20.303550
  0
VERTEX
  8
2
  6
CONTINUOUS
 10
46.952888
 20
20.498883
  0
SEQEND
  8
2
  6
CONTINUOUS
  0
POLYLINE
  8
2
  6
CONTINUOUS
 66
     1
  0
VERTEX
  8
2
  6
CONTINUOUS
 10
53.727223
 20
22.297274
  0
VERTEX
  8
2
  6
CONTINUOUS
 10
53.727223
 20
20.421805
  0
VERTEX
  8
2
  6
CONTINUOUS
 10
53.325671
 20
20.127538
  0
VERTEX
  8
2
  6
CONTINUOUS
 10
53.470180
 20
20.265803
  0
VERTEX
  8
2
  6
CONTINUOUS
 10
53.325671
 20
20.127538
  0
VERTEX
  8
2
  6
CONTINUOUS
 10
53.501042
 20
20.223689
  0
SEQEND
  8
2
  6
CONTINUOUS
  0
LINE
  8
2
  6
CONTINUOUS
 10
58.941840
 20
26.508530
 11
62.861840
 21
31.288530
  0
LINE
  8
2
  6
CONTINUOUS
 10
58.941840
 20
31.228530
 11
62.861840
 21
26.508530
  0
LINE
  8
2
  6
CONTINUOUS
 10
55.921840
 20
29.468530
 11
58.561840
 21
31.288530
  0
LINE
  8
2
  6
CONTINUOUS
 10
55.921840
 20
31.288530
 11
58.561840
 21
29.468530
  0
LINE
  8
2
  6
CONTINUOUS
 10
37.461840
 20
26.508530
 11
41.361840
 21
31.288530
  0
LINE
  8
2
  6
CONTINUOUS
 10
37.461840
 20
31.288530
 11
41.361840
 21
26.568530
  0
POLYLINE
  8
2
  6
CONTINUOUS
 66
     1
  0
VERTEX
  8
2
  6
CONTINUOUS
 10
55.126493
 20
31.151671
  0
VERTEX
  8
2
  6
CONTINUOUS
 10
55.126493
 20
29.276201
  0
VERTEX
  8
2
  6
CONTINUOUS
 10
55.325180
 20
29.057645
  0
VERTEX
  8
2
  6
CONTINUOUS
 10
55.172480
 20
29.186807
  0
VERTEX
  8
2
  6
CONTINUOUS
 10
55.325180
 20
29.057645
  0
VERTEX
  8
2
  6
CONTINUOUS
 10
55.211113
 20
29.221927
  0
SEQEND
  8
2
  6
CONTINUOUS
  0
POLYLINE
  8
18
  6
CONTINUOUS
 66
     1
  0
VERTEX
  8
18
  6
CONTINUOUS
 10
86.844949
 20
24.619584
  0
VERTEX
  8
18
  6
CONTINUOUS
 10
90.868652
 20
24.619584
  0
VERTEX
  8
18
  6
CONTINUOUS
 10
90.868652
 20
23.819584
  0
VERTEX
  8
18
  6
CONTINUOUS
 10
86.844949
 20
23.819584
  0
SEQEND
  8
18
  6
CONTINUOUS
  0
POLYLINE
  8
18
  6
CONTINUOUS
 66
     1
  0
VERTEX
  8
18
  6
CONTINUOUS
 10
86.844949
 20
23.819584
  0
VERTEX
  8
18
  6
CONTINUOUS
 10
86.844949
 20
24.086252
  0
VERTEX
  8
18
  6
CONTINUOUS
 10
86.444949
 20
24.219584
  0
VERTEX
  8
18
  6
CONTINUOUS
 10
87.244949
 20
24.219584
  0
VERTEX
  8
18
  6
CONTINUOUS
 10
86.844949
 20
24.352918
  0
VERTEX
  8
18
  6
CONTINUOUS
 10
86.844949
 20
24.619584
  0
SEQEND
  8
18
  6
CONTINUOUS
  0
LINE
  8
18
  6
CONTINUOUS
 10
86.844949
 20
24.619584
 11
86.844949
 21
25.019584
  0
LINE
  8
18
  6
CONTINUOUS
 10
86.844949
 20
23.819584
 11
86.844949
 21
23.419584
  0
POLYLINE
  8
6
  6
CONTINUOUS
 66
     1
  0
VERTEX
  8
6
  6
CONTINUOUS
 10
89.068652
 20
24.419584
  0
VERTEX
  8
6
  6
CONTINUOUS
 10
90.668652
 20
24.419584
  0
VERTEX
  8
6
  6
CONTINUOUS
 10
90.668652
 20
24.019584
  0
VERTEX
  8
6
  6
CONTINUOUS
 10
86.844949
 20
24.019584
  0
SEQEND
  8
6
  6
CONTINUOUS
  0
CIRCLE
  8
3
  6
CONTINUOUS
 10
90.592577
 20
24.343510
 40
0.070000
  0
CIRCLE
  8
3
  6
CONTINUOUS
 10
90.590215
 20
24.095659
 40
0.070000
  0
POLYLINE
  8
2
  6
CONTINUOUS
 66
     1
  0
VERTEX
  8
2
  6
CONTINUOUS
 10
89.665373
 20
22.821385
  0
VERTEX
  8
2
  6
CONTINUOUS
 10
90.497851
 20
24.315216
  0
VERTEX
  8
2
  6
CONTINUOUS
 10
90.424129
 20
24.129300
  0
VERTEX
  8
2
  6
CONTINUOUS
 10
90.497851
 20
24.315216
  0
VERTEX
  8
2
  6
CONTINUOUS
 10
90.378522
 20
24.154715
  0
SEQEND
  8
2
  6
CONTINUOUS
  0
POLYLINE
  8
2
  6
CONTINUOUS
 66
     1
  0
VERTEX
  8
2
  6
CONTINUOUS
 10
38.202031
 20
24.266772
  0
VERTEX
  8
2
  6
CONTINUOUS
 10
38.202031
 20
22.391302
  0
VERTEX
  8
2
  6
CONTINUOUS
 10
38.425494
 20
21.774072
  0
VERTEX
  8
2
  6
CONTINUOUS
 10
38.333447
 20
21.951631
  0
VERTEX
  8
2
  6
CONTINUOUS
 10
38.425494
 20
21.774072
  0
VERTEX
  8
2
  6
CONTINUOUS
 10
38.382539
 20
21.969405
  0
SEQEND
  8
2
  6
CONTINUOUS
  0
POLYLINE
  8
2
  6
CONTINUOUS
 66
     1
  0
VERTEX
  8
2
  6
CONTINUOUS
 10
61.996353
 20
25.716926
  0
VERTEX
  8
2
  6
CONTINUOUS
 10
61.996353
 20
23.841457
  0
VERTEX
  8
2
  6
CONTINUOUS
 10
61.750292
 20
23.481780
  0
VERTEX
  8
2
  6
CONTINUOUS
 10
61.840707
 20
23.660176
  0
VERTEX
  8
2
  6
CONTINUOUS
 10
61.750292
 20
23.481780
  0
VERTEX
  8
2
  6
CONTINUOUS
 10
61.883798
 20
23.630696
  0
SEQEND
  8
2
  6
CONTINUOUS
  0
POLYLINE
  8
2
  6
CONTINUOUS
 66
     1
  0
VERTEX
  8
2
  6
CONTINUOUS
 10
86.035693
 20
22.838947
  0
VERTEX
  8
2
  6
CONTINUOUS
 10
89.665373
 20
22.821385
  0
VERTEX
  8
2
  6
CONTINUOUS
 10
90.563834
 20
23.991079
  0
VERTEX
  8
2
  6
CONTINUOUS
 10
90.463748
 20
23.817923
  0
VERTEX
  8
2
  6
CONTINUOUS
 10
90.563834
 20
23.991079
  0
VERTEX
  8
2
  6
CONTINUOUS
 10
90.422342
 20
23.849727
  0
SEQEND
  8
2
  6
CONTINUOUS
  0
LINE
  8
2
  6
CONTINUOUS
 10
68.409318
 20
23.668530
 11
68.409318
 21
22.218530
  0
LINE
  8
2
  6
CONTINUOUS
 10
68.101093
 20
23.418530
 11
68.659318
 21
23.418530
  0
LINE
  8
2
  6
CONTINUOUS
 10
68.572927
 20
22.468530
 11
68.159318
 21
22.468530
  0
LINE
  8
2
  6
CONTINUOUS
 10
68.320930
 20
23.506918
 11
68.497707
 21
23.330142
  0
LINE
  8
2
  6
CONTINUOUS
 10
68.320930
 20
22.556918
 11
68.497707
 21
22.380142
  0
LINE
  8
2
  6
CONTINUOUS
 10
67.851093
 20
23.418530
 11
67.851093
 21
23.418530
  0
LINE
  8
2
  6
CONTINUOUS
 10
68.822927
 20
22.468530
 11
68.822927
 21
22.468530
  0
LINE
  8
2
  6
CONTINUOUS
 10
30.366157
 20
22.218530
 11
30.366157
 21
23.668530
  0
LINE
  8
2
  6
CONTINUOUS
 10
30.502467
 20
22.468530
 11
30.116157
 21
22.468530
  0
LINE
  8
2
  6
CONTINUOUS
 10
30.094049
 20
23.418530
 11
30.616157
 21
23.418530
  0
LINE
  8
2
  6
CONTINUOUS
 10
30.454545
 20
22.380142
 11
30.277768
 21
22.556918
  0
LINE
  8
2
  6
CONTINUOUS
 10
30.454545
 20
23.330142
 11
30.277768
 21
23.506918
  0
LINE
  8
2
  6
CONTINUOUS
 10
30.752467
 20
22.468530
 11
30.752467
 21
22.468530
  0
LINE
  8
2
  6
CONTINUOUS
 10
29.844049
 20
23.418530
 11
29.844049
 21
23.418530
  0
POLYLINE
  8
2
  6
CONTINUOUS
 66
     1
  0
VERTEX
  8
2
  6
CONTINUOUS
 10
30.699955
 20
21.034720
  0
VERTEX
  8
2
  6
CONTINUOUS
 10
30.699955
 20
19.159250
  0
VERTEX
  8
2
  6
CONTINUOUS
 10
30.981980
 20
18.849022
  0
VERTEX
  8
2
  6
CONTINUOUS
 10
30.829280
 20
18.978184
  0
VERTEX
  8
2
  6
CONTINUOUS
 10
30.981980
 20
18.849022
  0
VERTEX
  8
2
  6
CONTINUOUS
 10
30.867913
 20
19.013304
  0
SEQEND
  8
2
  6
CONTINUOUS
  0
POLYLINE
  8
2
  6
CONTINUOUS
 66
     1
  0
VERTEX
  8
2
  6
CONTINUOUS
 10
69.787905
 20
20.840766
  0
VERTEX
  8
2
  6
CONTINUOUS
 10
69.787905
 20
18.965296
  0
VERTEX
  8
2
  6
CONTINUOUS
 10
69.312002
 20
18.733193
  0
VERTEX
  8
2
  6
CONTINUOUS
 10
69.478781
 20
18.843577
  0
VERTEX
  8
2
  6
CONTINUOUS
 10
69.312002
 20
18.733193
  0
VERTEX
  8
2
  6
CONTINUOUS
 10
69.501668
 20
18.796650
  0
SEQEND
  8
2
  6
CONTINUOUS
  0
LINE
  8
2
  6
CONTINUOUS
 10
33.981840
 20
37.350097
 11
30.141840
 21
37.350097
  0
LINE
  8
2
  6
CONTINUOUS
 10
33.981840
 20
37.350097
 11
33.733979
 21
37.317466
  0
LINE
  8
2
  6
CONTINUOUS
 10
33.981840
 20
37.350097
 11
33.733979
 21
37.382729
  0
LINE
  8
2
  6
CONTINUOUS
 10
30.141840
 20
37.350097
 11
30.389701
 21
37.382729
  0
LINE
  8
2
  6
CONTINUOUS
 10
30.141840
 20
37.350097
 11
30.389701
 21
37.317466
  0
LINE
  8
2
  6
CONTINUOUS
 10
33.981840
 20
37.350097
 11
33.981840
 21
37.350097
  0
LINE
  8
2
  6
CONTINUOUS
 10
30.141840
 20
37.350097
 11
30.141840
 21
37.350097
  0
CIRCLE
  8
2
  6
CONTINUOUS
 10
31.593773
 20
37.350097
 40
0.041625
  0
CIRCLE
  8
2
  6
CONTINUOUS
 10
31.593773
 20
37.350097
 40
0.020750
  0
LINE
  8
6
  6
CONTINUOUS
 10
31.593773
 20
35.414096
 11
31.593773
 21
45.094096
  0
LINE
  8
2
  6
CONTINUOUS
 10
55.381840
 20
10.198615
 11
44.941840
 21
10.198615
  0
LINE
  8
2
  6
CONTINUOUS
 10
55.381840
 20
10.198615
 11
55.133979
 21
10.165984
  0
LINE
  8
2
  6
CONTINUOUS
 10
55.381840
 20
10.198615
 11
55.133979
 21
10.231247
  0
LINE
  8
2
  6
CONTINUOUS
 10
44.941840
 20
10.198615
 11
45.189701
 21
10.231247
  0
LINE
  8
2
  6
CONTINUOUS
 10
44.941840
 20
10.198615
 11
45.189701
 21
10.165984
  0
LINE
  8
2
  6
CONTINUOUS
 10
55.381840
 20
9.306530
 11
55.381840
 21
9.306530
  0
LINE
  8
2
  6
CONTINUOUS
 10
44.941840
 20
9.306530
 11
44.941840
 21
9.306530
  0
CIRCLE
  8
2
  6
CONTINUOUS
 10
50.557725
 20
10.198615
 40
0.041625
  0
CIRCLE
  8
2
  6
CONTINUOUS
 10
50.557725
 20
10.198615
 40
0.020750
  0
LINE
  8
6
  6
CONTINUOUS
 10
50.557725
 20
7.138530
 11
50.557725
 21
17.978530
  0
LINE
  8
2
  6
CONTINUOUS
 10
33.981840
 20
10.405959
 11
31.561840
 21
10.405959
  0
LINE
  8
2
  6
CONTINUOUS
 10
33.981840
 20
10.405959
 11
33.733979
 21
10.373327
  0
LINE
  8
2
  6
CONTINUOUS
 10
33.981840
 20
10.405959
 11
33.733979
 21
10.438591
  0
LINE
  8
2
  6
CONTINUOUS
 10
31.561840
 20
10.405959
 11
31.809701
 21
10.438591
  0
LINE
  8
2
  6
CONTINUOUS
 10
31.561840
 20
10.405959
 11
31.809701
 21
10.373327
  0
LINE
  8
2
  6
CONTINUOUS
 10
33.981840
 20
9.514530
 11
33.981840
 21
9.514530
  0
LINE
  8
2
  6
CONTINUOUS
 10
31.561840
 20
9.514530
 11
31.561840
 21
9.514530
  0
CIRCLE
  8
2
  6
CONTINUOUS
 10
32.956762
 20
10.405959
 40
0.041625
  0
CIRCLE
  8
2
  6
CONTINUOUS
 10
32.956762
 20
10.405959
 40
0.020750
  0
LINE
  8
6
  6
CONTINUOUS
 10
32.956762
 20
7.138530
 11
32.956762
 21
19.018530
  0
LINE
  8
6
  6
CONTINUOUS
 10
32.956762
 20
19.018530
 11
32.876762
 21
19.018530
  0
LINE
  8
6
  6
CONTINUOUS
 10
32.876762
 20
19.018530
 11
32.876762
 21
18.418530
  0
LINE
  8
2
  6
CONTINUOUS
 10
52.701840
 20
27.198920
 11
50.341840
 21
27.198920
  0
LINE
  8
2
  6
CONTINUOUS
 10
52.701840
 20
27.198920
 11
52.453979
 21
27.166289
  0
LINE
  8
2
  6
CONTINUOUS
 10
52.701840
 20
27.198920
 11
52.453979
 21
27.231552
  0
LINE
  8
2
  6
CONTINUOUS
 10
50.341840
 20
27.198920
 11
50.589701
 21
27.231552
  0
LINE
  8
2
  6
CONTINUOUS
 10
50.341840
 20
27.198920
 11
50.589701
 21
27.166289
  0
LINE
  8
2
  6
CONTINUOUS
 10
52.701840
 20
27.378530
 11
52.701840
 21
27.378530
  0
LINE
  8
2
  6
CONTINUOUS
 10
50.341840
 20
27.378530
 11
50.341840
 21
27.378530
  0
CIRCLE
  8
2
  6
CONTINUOUS
 10
51.589648
 20
27.198920
 40
0.041625
  0
CIRCLE
  8
2
  6
CONTINUOUS
 10
51.589648
 20
27.198920
 40
0.020750
  0
LINE
  8
6
  6
CONTINUOUS
 10
51.589648
 20
26.118530
 11
51.589648
 21
32.418530
  0
LINE
  8
2
  6
CONTINUOUS
 10
13.232863
 20
39.614761
 11
11.148700
 21
39.614761
  0
LINE
  8
2
  6
CONTINUOUS
 10
13.232863
 20
39.614761
 11
12.985002
 21
39.582129
  0
LINE
  8
2
  6
CONTINUOUS
 10
13.232863
 20
39.614761
 11
12.985002
 21
39.647392
  0
LINE
  8
2
  6
CONTINUOUS
 10
11.148700
 20
39.614761
 11
11.396562
 21
39.647392
  0
LINE
  8
2
  6
CONTINUOUS
 10
11.148700
 20
39.614761
 11
11.396562
 21
39.582129
  0
LINE
  8
2
  6
CONTINUOUS
 10
13.232863
 20
39.389985
 11
13.232863
 21
39.389985
  0
LINE
  8
2
  6
CONTINUOUS
 10
11.148700
 20
39.389985
 11
11.148700
 21
39.389985
  0
CIRCLE
  8
2
  6
CONTINUOUS
 10
11.496061
 20
39.614761
 40
0.041625
  0
CIRCLE
  8
2
  6
CONTINUOUS
 10
11.496061
 20
39.614761
 40
0.020750
  0
LINE
  8
6
  6
CONTINUOUS
 10
11.496061
 20
38.794096
 11
11.496061
 21
41.773539
  0
LINE
  8
2
  6
CONTINUOUS
 10
66.341840
 20
37.350097
 11
70.181840
 21
37.350097
  0
LINE
  8
2
  6
CONTINUOUS
 10
66.341840
 20
37.350097
 11
66.589701
 21
37.382729
  0
LINE
  8
2
  6
CONTINUOUS
 10
66.341840
 20
37.350097
 11
66.589701
 21
37.317466
  0
LINE
  8
2
  6
CONTINUOUS
 10
70.181840
 20
37.350097
 11
69.933979
 21
37.317466
  0
LINE
  8
2
  6
CONTINUOUS
 10
70.181840
 20
37.350097
 11
69.933979
 21
37.382729
  0
LINE
  8
2
  6
CONTINUOUS
 10
66.341840
 20
37.350097
 11
66.341840
 21
37.350097
  0
LINE
  8
2
  6
CONTINUOUS
 10
70.181840
 20
37.350097
 11
70.181840
 21
37.350097
  0
CIRCLE
  8
2
  6
CONTINUOUS
 10
68.464753
 20
37.350097
 40
0.041625
  0
CIRCLE
  8
2
  6
CONTINUOUS
 10
68.464753
 20
37.350097
 40
0.020750
  0
LINE
  8
6
  6
CONTINUOUS
 10
68.464753
 20
35.414096
 11
68.464753
 21
45.094096
  0
LINE
  8
2
  6
CONTINUOUS
 10
71.761840
 20
11.599893
 11
76.981840
 21
11.599893
  0
LINE
  8
2
  6
CONTINUOUS
 10
71.761840
 20
11.599893
 11
72.009701
 21
11.632525
  0
LINE
  8
2
  6
CONTINUOUS
 10
71.761840
 20
11.599893
 11
72.009701
 21
11.567262
  0
LINE
  8
2
  6
CONTINUOUS
 10
76.981840
 20
11.599893
 11
76.733979
 21
11.567262
  0
LINE
  8
2
  6
CONTINUOUS
 10
76.981840
 20
11.599893
 11
76.733979
 21
11.632525
  0
LINE
  8
2
  6
CONTINUOUS
 10
71.761840
 20
11.970097
 11
71.761840
 21
11.970097
  0
LINE
  8
2
  6
CONTINUOUS
 10
76.981840
 20
11.970097
 11
76.981840
 21
11.970097
  0
CIRCLE
  8
2
  6
CONTINUOUS
 10
74.775190
 20
11.599893
 40
0.041625
  0
CIRCLE
  8
2
  6
CONTINUOUS
 10
74.775190
 20
11.599893
 40
0.020750
  0
LINE
  8
6
  6
CONTINUOUS
 10
74.775190
 20
10.394097
 11
74.775190
 21
18.274097
  0
LINE
  8
2
  6
CONTINUOUS
 10
55.761840
 20
11.113341
 11
65.961840
 21
11.113341
  0
LINE
  8
2
  6
CONTINUOUS
 10
55.761840
 20
11.113341
 11
56.009701
 21
11.145973
  0
LINE
  8
2
  6
CONTINUOUS
 10
55.761840
 20
11.113341
 11
56.009701
 21
11.080710
  0
LINE
  8
2
  6
CONTINUOUS
 10
65.961840
 20
11.113341
 11
65.713979
 21
11.080710
  0
LINE
  8
2
  6
CONTINUOUS
 10
65.961840
 20
11.113341
 11
65.713979
 21
11.145973
  0
LINE
  8
2
  6
CONTINUOUS
 10
55.761840
 20
9.830530
 11
55.761840
 21
9.830530
  0
LINE
  8
2
  6
CONTINUOUS
 10
65.961840
 20
9.830530
 11
65.961840
 21
9.830530
  0
CIRCLE
  8
2
  6
CONTINUOUS
 10
61.054681
 20
11.113341
 40
0.041625
  0
CIRCLE
  8
2
  6
CONTINUOUS
 10
61.054681
 20
11.113341
 40
0.020750
  0
LINE
  8
6
  6
CONTINUOUS
 10
61.054681
 20
7.138530
 11
61.054681
 21
20.598530
  0
LINE
  8
2
  6
CONTINUOUS
 10
66.341840
 20
10.454050
 11
68.761840
 21
10.454050
  0
LINE
  8
2
  6
CONTINUOUS
 10
66.341840
 20
10.454050
 11
66.589701
 21
10.486681
  0
LINE
  8
2
  6
CONTINUOUS
 10
66.341840
 20
10.454050
 11
66.589701
 21
10.421418
  0
LINE
  8
2
  6
CONTINUOUS
 10
68.761840
 20
10.454050
 11
68.513979
 21
10.421418
  0
LINE
  8
2
  6
CONTINUOUS
 10
68.761840
 20
10.454050
 11
68.513979
 21
10.486681
  0
LINE
  8
2
  6
CONTINUOUS
 10
66.341840
 20
9.514530
 11
66.341840
 21
9.514530
  0
LINE
  8
2
  6
CONTINUOUS
 10
68.761840
 20
9.514530
 11
68.761840
 21
9.514530
  0
CIRCLE
  8
2
  6
CONTINUOUS
 10
67.596062
 20
10.454050
 40
0.041625
  0
CIRCLE
  8
2
  6
CONTINUOUS
 10
67.596062
 20
10.454050
 40
0.020750
  0
LINE
  8
6
  6
CONTINUOUS
 10
67.596062
 20
7.138530
 11
67.596062
 21
19.018530
  0
LINE
  8
6
  6
CONTINUOUS
 10
67.596062
 20
19.018530
 11
67.516062
 21
19.018530
  0
LINE
  8
6
  6
CONTINUOUS
 10
67.516062
 20
19.018530
 11
67.516062
 21
18.418530
  0
LINE
  8
2
  6
CONTINUOUS
 10
66.341840
 20
20.938530
 11
68.761840
 21
20.938530
  0
LINE
  8
2
  6
CONTINUOUS
 10
66.341840
 20
20.938530
 11
66.589701
 21
20.971162
  0
LINE
  8
2
  6
CONTINUOUS
 10
66.341840
 20
20.938530
 11
66.589701
 21
20.905898
  0
LINE
  8
2
  6
CONTINUOUS
 10
68.761840
 20
20.938530
 11
68.513979
 21
20.905898
  0
LINE
  8
2
  6
CONTINUOUS
 10
68.761840
 20
20.938530
 11
68.513979
 21
20.971162
  0
LINE
  8
2
  6
CONTINUOUS
 10
66.341840
 20
20.938530
 11
66.341840
 21
20.938530
  0
LINE
  8
2
  6
CONTINUOUS
 10
68.761840
 20
20.938530
 11
68.761840
 21
20.938530
  0
CIRCLE
  8
2
  6
CONTINUOUS
 10
67.851093
 20
20.938530
 40
0.041625
  0
CIRCLE
  8
2
  6
CONTINUOUS
 10
67.851093
 20
20.938530
 40
0.020750
  0
LINE
  8
6
  6
CONTINUOUS
 10
67.771093
 20
20.918530
 11
67.771093
 21
20.318530
  0
LINE
  8
6
  6
CONTINUOUS
 10
67.771093
 20
20.318530
 11
67.851093
 21
20.318530
  0
LINE
  8
6
  6
CONTINUOUS
 10
67.851093
 20
20.318530
 11
67.851093
 21
23.418530
  0
LINE
  8
2
  6
CONTINUOUS
 10
87.090817
 20
39.514117
 11
89.174980
 21
39.514117
  0
LINE
  8
2
  6
CONTINUOUS
 10
87.090817
 20
39.514117
 11
87.338678
 21
39.546749
  0
LINE
  8
2
  6
CONTINUOUS
 10
87.090817
 20
39.514117
 11
87.338678
 21
39.481486
  0
LINE
  8
2
  6
CONTINUOUS
 10
89.174980
 20
39.514117
 11
88.927118
 21
39.481486
  0
LINE
  8
2
  6
CONTINUOUS
 10
89.174980
 20
39.514117
 11
88.927118
 21
39.546749
  0
LINE
  8
2
  6
CONTINUOUS
 10
87.090817
 20
39.389985
 11
87.090817
 21
39.389985
  0
LINE
  8
2
  6
CONTINUOUS
 10
89.174980
 20
39.389985
 11
89.174980
 21
39.389985
  0
CIRCLE
  8
2
  6
CONTINUOUS
 10
88.827619
 20
39.514117
 40
0.041625
  0
CIRCLE
  8
2
  6
CONTINUOUS
 10
88.827619
 20
39.514117
 40
0.020750
  0
LINE
  8
6
  6
CONTINUOUS
 10
88.827619
 20
38.794096
 11
88.827619
 21
41.773539
  0
LINE
  8
2
  6
CONTINUOUS
 10
33.981840
 20
20.992496
 11
31.561840
 21
20.992496
  0
LINE
  8
2
  6
CONTINUOUS
 10
33.981840
 20
20.992496
 11
33.733979
 21
20.959865
  0
LINE
  8
2
  6
CONTINUOUS
 10
33.981840
 20
20.992496
 11
33.733979
 21
21.025128
  0
LINE
  8
2
  6
CONTINUOUS
 10
31.561840
 20
20.992496
 11
31.809701
 21
21.025128
  0
LINE
  8
2
  6
CONTINUOUS
 10
31.561840
 20
20.992496
 11
31.809701
 21
20.959865
  0
LINE
  8
2
  6
CONTINUOUS
 10
33.981840
 20
20.938530
 11
33.981840
 21
20.938530
  0
LINE
  8
2
  6
CONTINUOUS
 10
31.561840
 20
20.938530
 11
31.561840
 21
20.938530
  0
CIRCLE
  8
2
  6
CONTINUOUS
 10
32.955741
 20
20.992496
 40
0.041625
  0
CIRCLE
  8
2
  6
CONTINUOUS
 10
32.955741
 20
20.992496
 40
0.020750
  0
LINE
  8
6
  6
CONTINUOUS
 10
32.875741
 20
20.918530
 11
32.875741
 21
20.318530
  0
LINE
  8
6
  6
CONTINUOUS
 10
32.875741
 20
20.318530
 11
32.955741
 21
20.318530
  0
LINE
  8
6
  6
CONTINUOUS
 10
32.955741
 20
20.318530
 11
32.955741
 21
23.418530
  0
LINE
  8
2
  6
CONTINUOUS
 10
28.561840
 20
11.476985
 11
23.341840
 21
11.476985
  0
LINE
  8
2
  6
CONTINUOUS
 10
28.561840
 20
11.476985
 11
28.313979
 21
11.444354
  0
LINE
  8
2
  6
CONTINUOUS
 10
28.561840
 20
11.476985
 11
28.313979
 21
11.509617
  0
LINE
  8
2
  6
CONTINUOUS
 10
23.341840
 20
11.476985
 11
23.589701
 21
11.509617
  0
LINE
  8
2
  6
CONTINUOUS
 10
23.341840
 20
11.476985
 11
23.589701
 21
11.444354
  0
LINE
  8
2
  6
CONTINUOUS
 10
28.561840
 20
11.970097
 11
28.561840
 21
11.970097
  0
LINE
  8
2
  6
CONTINUOUS
 10
23.341840
 20
11.970097
 11
23.341840
 21
11.970097
  0
CIRCLE
  8
2
  6
CONTINUOUS
 10
24.920710
 20
11.476985
 40
0.041625
  0
CIRCLE
  8
2
  6
CONTINUOUS
 10
24.920710
 20
11.476985
 40
0.020750
  0
LINE
  8
6
  6
CONTINUOUS
 10
24.920710
 20
10.394097
 11
24.920710
 21
18.274097
  0
LINE
  8
2
  6
CONTINUOUS
 10
52.761840
 20
21.441744
 11
47.561840
 21
21.441744
  0
LINE
  8
2
  6
CONTINUOUS
 10
52.761840
 20
21.441744
 11
52.513979
 21
21.409113
  0
LINE
  8
2
  6
CONTINUOUS
 10
52.761840
 20
21.441744
 11
52.513979
 21
21.474376
  0
LINE
  8
2
  6
CONTINUOUS
 10
47.561840
 20
21.441744
 11
47.809701
 21
21.474376
  0
LINE
  8
2
  6
CONTINUOUS
 10
47.561840
 20
21.441744
 11
47.809701
 21
21.409113
  0
LINE
  8
2
  6
CONTINUOUS
 10
52.761840
 20
21.706530
 11
52.761840
 21
21.706530
  0
LINE
  8
2
  6
CONTINUOUS
 10
47.561840
 20
21.706530
 11
47.561840
 21
21.706530
  0
CIRCLE
  8
2
  6
CONTINUOUS
 10
50.582198
 20
21.441744
 40
0.041625
  0
CIRCLE
  8
2
  6
CONTINUOUS
 10
50.582198
 20
21.441744
 40
0.020750
  0
LINE
  8
6
  6
CONTINUOUS
 10
50.502198
 20
21.118530
 11
50.502198
 21
20.518530
  0
LINE
  8
6
  6
CONTINUOUS
 10
50.502198
 20
20.518530
 11
50.582198
 21
20.518530
  0
LINE
  8
6
  6
CONTINUOUS
 10
50.582198
 20
20.518530
 11
50.582198
 21
26.458530
  0
LINE
  8
2
  6
CONTINUOUS
 10
52.761840
 20
18.217100
 11
47.561840
 21
18.217100
  0
LINE
  8
2
  6
CONTINUOUS
 10
52.761840
 20
18.217100
 11
52.513979
 21
18.184469
  0
LINE
  8
2
  6
CONTINUOUS
 10
52.761840
 20
18.217100
 11
52.513979
 21
18.249732
  0
LINE
  8
2
  6
CONTINUOUS
 10
47.561840
 20
18.217100
 11
47.809701
 21
18.249732
  0
LINE
  8
2
  6
CONTINUOUS
 10
47.561840
 20
18.217100
 11
47.809701
 21
18.184469
  0
LINE
  8
2
  6
CONTINUOUS
 10
52.761840
 20
18.801318
 11
52.761840
 21
18.801318
  0
LINE
  8
2
  6
CONTINUOUS
 10
47.561840
 20
18.801318
 11
47.561840
 21
18.801318
  0
CIRCLE
  8
2
  6
CONTINUOUS
 10
49.949353
 20
18.217100
 40
0.041625
  0
CIRCLE
  8
2
  6
CONTINUOUS
 10
49.949353
 20
18.217100
 40
0.020750
  0
LINE
  8
6
  6
CONTINUOUS
 10
49.949353
 20
17.698530
 11
49.949353
 21
19.218530
  0
LINE
  8
6
  6
CONTINUOUS
 10
49.949353
 20
19.218530
 11
49.869353
 21
19.218530
  0
LINE
  8
6
  6
CONTINUOUS
 10
49.869353
 20
19.218530
 11
49.869353
 21
18.618530
  0
LINE
  8
6
  6
CONTINUOUS
 10
47.445628
 20
18.418530
 11
47.445628
 21
21.318530
  0
LINE
  8
6
  6
CONTINUOUS
 10
52.878052
 20
18.418530
 11
52.878052
 21
21.318530
  0
LINE
  8
2
  6
CONTINUOUS
 10
55.381840
 20
19.450530
 11
52.878052
 21
19.450530
  0
LINE
  8
2
  6
CONTINUOUS
 10
55.381840
 20
19.450530
 11
55.133979
 21
19.417898
  0
LINE
  8
2
  6
CONTINUOUS
 10
55.381840
 20
19.450530
 11
55.133979
 21
19.483161
  0
LINE
  8
2
  6
CONTINUOUS
 10
52.878052
 20
19.450530
 11
53.125913
 21
19.483161
  0
LINE
  8
2
  6
CONTINUOUS
 10
52.878052
 20
19.450530
 11
53.125913
 21
19.417898
  0
LINE
  8
2
  6
CONTINUOUS
 10
55.381840
 20
19.450530
 11
55.381840
 21
19.450530
  0
LINE
  8
2
  6
CONTINUOUS
 10
52.878052
 20
19.435230
 11
52.878052
 21
19.435230
  0
CIRCLE
  8
2
  6
CONTINUOUS
 10
54.734259
 20
19.450530
 40
0.041625
  0
CIRCLE
  8
2
  6
CONTINUOUS
 10
54.734259
 20
19.450530
 40
0.020750
  0
LINE
  8
6
  6
CONTINUOUS
 10
54.734259
 20
17.698530
 11
54.734259
 21
26.458530
  0
LINE
  8
2
  6
CONTINUOUS
 10
47.445628
 20
19.450530
 11
44.941840
 21
19.450530
  0
LINE
  8
2
  6
CONTINUOUS
 10
47.445628
 20
19.450530
 11
47.197767
 21
19.417898
  0
LINE
  8
2
  6
CONTINUOUS
 10
47.445628
 20
19.450530
 11
47.197767
 21
19.483161
  0
LINE
  8
2
  6
CONTINUOUS
 10
44.941840
 20
19.450530
 11
45.189701
 21
19.483161
  0
LINE
  8
2
  6
CONTINUOUS
 10
44.941840
 20
19.450530
 11
45.189701
 21
19.417898
  0
LINE
  8
2
  6
CONTINUOUS
 10
47.445628
 20
19.450530
 11
47.445628
 21
19.450530
  0
LINE
  8
2
  6
CONTINUOUS
 10
44.941840
 20
19.450530
 11
44.941840
 21
19.450530
  0
CIRCLE
  8
2
  6
CONTINUOUS
 10
45.843493
 20
19.450530
 40
0.041625
  0
CIRCLE
  8
2
  6
CONTINUOUS
 10
45.843493
 20
19.450530
 40
0.020750
  0
LINE
  8
6
  6
CONTINUOUS
 10
45.843493
 20
17.698530
 11
45.843493
 21
26.458530
  0
LINE
  8
2
  6
CONTINUOUS
 10
68.761840
 20
12.324435
 11
71.381840
 21
12.324435
  0
LINE
  8
2
  6
CONTINUOUS
 10
68.761840
 20
12.324435
 11
69.009701
 21
12.357067
  0
LINE
  8
2
  6
CONTINUOUS
 10
68.761840
 20
12.324435
 11
69.009701
 21
12.291804
  0
LINE
  8
2
  6
CONTINUOUS
 10
71.381840
 20
12.324435
 11
71.133979
 21
12.291804
  0
LINE
  8
2
  6
CONTINUOUS
 10
71.381840
 20
12.324435
 11
71.133979
 21
12.357067
  0
LINE
  8
2
  6
CONTINUOUS
 10
68.761840
 20
10.394530
 11
68.761840
 21
10.394530
  0
LINE
  8
2
  6
CONTINUOUS
 10
71.381840
 20
10.394530
 11
71.381840
 21
10.394530
  0
CIRCLE
  8
2
  6
CONTINUOUS
 10
70.407555
 20
12.324435
 40
0.041625
  0
CIRCLE
  8
2
  6
CONTINUOUS
 10
70.407555
 20
12.324435
 40
0.020750
  0
LINE
  8
6
  6
CONTINUOUS
 10
70.407555
 20
7.138530
 11
70.407555
 21
23.418530
  0
LINE
  8
2
  6
CONTINUOUS
 10
31.561840
 20
12.148132
 11
28.941840
 21
12.148132
  0
LINE
  8
2
  6
CONTINUOUS
 10
31.561840
 20
12.148132
 11
31.313979
 21
12.115501
  0
LINE
  8
2
  6
CONTINUOUS
 10
31.561840
 20
12.148132
 11
31.313979
 21
12.180764
  0
LINE
  8
2
  6
CONTINUOUS
 10
28.941840
 20
12.148132
 11
29.189701
 21
12.180764
  0
LINE
  8
2
  6
CONTINUOUS
 10
28.941840
 20
12.148132
 11
29.189701
 21
12.115501
  0
LINE
  8
2
  6
CONTINUOUS
 10
31.561840
 20
10.394530
 11
31.561840
 21
10.394530
  0
LINE
  8
2
  6
CONTINUOUS
 10
28.941840
 20
10.394530
 11
28.941840
 21
10.394530
  0
CIRCLE
  8
2
  6
CONTINUOUS
 10
29.844049
 20
12.148132
 40
0.041625
  0
CIRCLE
  8
2
  6
CONTINUOUS
 10
29.844049
 20
12.148132
 40
0.020750
  0
LINE
  8
6
  6
CONTINUOUS
 10
29.844049
 20
7.138530
 11
29.844049
 21
23.418530
  0
LINE
  8
2
  6
CONTINUOUS
 10
55.921840
 20
27.937399
 11
53.201840
 21
27.937399
  0
LINE
  8
2
  6
CONTINUOUS
 10
55.921840
 20
27.937399
 11
55.673979
 21
27.904767
  0
LINE
  8
2
  6
CONTINUOUS
 10
55.921840
 20
27.937399
 11
55.673979
 21
27.970030
  0
LINE
  8
2
  6
CONTINUOUS
 10
53.201840
 20
27.937399
 11
53.449701
 21
27.970030
  0
LINE
  8
2
  6
CONTINUOUS
 10
53.201840
 20
27.937399
 11
53.449701
 21
27.904767
  0
LINE
  8
2
  6
CONTINUOUS
 10
55.921840
 20
27.218530
 11
55.921840
 21
27.218530
  0
LINE
  8
2
  6
CONTINUOUS
 10
53.201840
 20
27.218530
 11
53.201840
 21
27.218530
  0
CIRCLE
  8
2
  6
CONTINUOUS
 10
54.244591
 20
27.937399
 40
0.041625
  0
CIRCLE
  8
2
  6
CONTINUOUS
 10
54.244591
 20
27.937399
 40
0.020750
  0
LINE
  8
6
  6
CONTINUOUS
 10
54.244591
 20
26.118530
 11
54.244591
 21
31.618530
  0
LINE
  8
6
  6
CONTINUOUS
 10
31.445628
 20
18.168530
 11
31.445628
 21
21.168530
  0
LINE
  8
6
  6
CONTINUOUS
 10
68.878052
 20
18.168530
 11
68.878052
 21
21.168530
  0
LINE
  8
6
  6
CONTINUOUS
 10
55.795281
 20
28.618530
 11
55.795281
 21
31.618530
  0
LINE
  8
2
  6
CONTINUOUS
 10
58.561840
 20
28.739062
 11
55.921840
 21
28.739062
  0
LINE
  8
2
  6
CONTINUOUS
 10
58.561840
 20
28.739062
 11
58.313979
 21
28.706431
  0
LINE
  8
2
  6
CONTINUOUS
 10
58.561840
 20
28.739062
 11
58.313979
 21
28.771694
  0
LINE
  8
2
  6
CONTINUOUS
 10
55.921840
 20
28.739062
 11
56.169701
 21
28.771694
  0
LINE
  8
2
  6
CONTINUOUS
 10
55.921840
 20
28.739062
 11
56.169701
 21
28.706431
  0
LINE
  8
2
  6
CONTINUOUS
 10
58.561840
 20
26.778530
 11
58.561840
 21
26.778530
  0
LINE
  8
2
  6
CONTINUOUS
 10
55.921840
 20
26.778530
 11
55.921840
 21
26.778530
  0
CIRCLE
  8
2
  6
CONTINUOUS
 10
57.702384
 20
28.739062
 40
0.041625
  0
CIRCLE
  8
2
  6
CONTINUOUS
 10
57.702384
 20
28.739062
 40
0.020750
  0
LINE
  8
6
  6
CONTINUOUS
 10
57.702384
 20
26.118530
 11
57.702384
 21
29.418530
  0
LINE
  8
6
  6
CONTINUOUS
 10
57.702384
 20
29.418530
 11
57.622384
 21
29.418530
  0
LINE
  8
6
  6
CONTINUOUS
 10
57.622384
 20
29.418530
 11
57.622384
 21
28.818530
  0
LINE
  8
2
  6
CONTINUOUS
 10
28.753268
 20
25.926065
 11
26.661840
 21
25.926065
  0
LINE
  8
2
  6
CONTINUOUS
 10
28.753268
 20
25.926065
 11
28.505407
 21
25.893434
  0
LINE
  8
2
  6
CONTINUOUS
 10
28.753268
 20
25.926065
 11
28.505407
 21
25.958697
  0
LINE
  8
2
  6
CONTINUOUS
 10
26.661840
 20
25.926065
 11
26.909701
 21
25.958697
  0
LINE
  8
2
  6
CONTINUOUS
 10
26.661840
 20
25.926065
 11
26.909701
 21
25.893434
  0
LINE
  8
2
  6
CONTINUOUS
 10
28.753268
 20
25.926065
 11
28.753268
 21
25.926065
  0
LINE
  8
2
  6
CONTINUOUS
 10
26.661840
 20
25.926065
 11
26.661840
 21
25.926065
  0
CIRCLE
  8
2
  6
CONTINUOUS
 10
26.992614
 20
25.926065
 40
0.041625
  0
CIRCLE
  8
2
  6
CONTINUOUS
 10
26.992614
 20
25.926065
 40
0.020750
  0
LINE
  8
6
  6
CONTINUOUS
 10
26.992614
 20
24.089057
 11
26.992614
 21
33.274098
  0
LINE
  8
2
  6
CONTINUOUS
 10
26.363066
 20
26.186097
 11
19.491227
 21
26.186097
  0
LINE
  8
2
  6
CONTINUOUS
 10
26.363066
 20
26.186097
 11
26.115204
 21
26.153466
  0
LINE
  8
2
  6
CONTINUOUS
 10
26.363066
 20
26.186097
 11
26.115204
 21
26.218729
  0
LINE
  8
2
  6
CONTINUOUS
 10
19.491227
 20
26.186097
 11
19.739088
 21
26.218729
  0
LINE
  8
2
  6
CONTINUOUS
 10
19.491227
 20
26.186097
 11
19.739088
 21
26.153466
  0
LINE
  8
2
  6
CONTINUOUS
 10
26.363066
 20
26.186097
 11
26.363066
 21
26.186097
  0
LINE
  8
2
  6
CONTINUOUS
 10
19.491227
 20
26.186097
 11
19.491227
 21
26.186097
  0
CIRCLE
  8
2
  6
CONTINUOUS
 10
21.228806
 20
26.186097
 40
0.041625
  0
CIRCLE
  8
2
  6
CONTINUOUS
 10
21.228806
 20
26.186097
 40
0.020750
  0
LINE
  8
6
  6
CONTINUOUS
 10
21.228806
 20
24.414098
 11
21.228806
 21
33.274098
  0
LINE
  8
2
  6
CONTINUOUS
 10
36.961840
 20
24.650416
 11
34.361840
 21
24.650416
  0
LINE
  8
2
  6
CONTINUOUS
 10
36.961840
 20
24.650416
 11
36.713979
 21
24.617784
  0
LINE
  8
2
  6
CONTINUOUS
 10
36.961840
 20
24.650416
 11
36.713979
 21
24.683047
  0
LINE
  8
2
  6
CONTINUOUS
 10
34.361840
 20
24.650416
 11
34.609701
 21
24.683047
  0
LINE
  8
2
  6
CONTINUOUS
 10
34.361840
 20
24.650416
 11
34.609701
 21
24.617784
  0
LINE
  8
2
  6
CONTINUOUS
 10
36.961840
 20
22.909643
 11
36.961840
 21
22.909643
  0
LINE
  8
2
  6
CONTINUOUS
 10
34.361840
 20
22.909643
 11
34.361840
 21
22.909643
  0
CIRCLE
  8
2
  6
CONTINUOUS
 10
35.718849
 20
24.650416
 40
0.041625
  0
CIRCLE
  8
2
  6
CONTINUOUS
 10
35.718849
 20
24.650416
 40
0.020750
  0
LINE
  8
6
  6
CONTINUOUS
 10
35.718849
 20
20.318530
 11
35.718849
 21
33.274098
  0
LINE
  8
2
  6
CONTINUOUS
 10
44.369533
 20
22.590403
 11
38.961840
 21
22.590403
  0
LINE
  8
2
  6
CONTINUOUS
 10
44.369533
 20
22.590403
 11
44.121672
 21
22.557772
  0
LINE
  8
2
  6
CONTINUOUS
 10
44.369533
 20
22.590403
 11
44.121672
 21
22.623035
  0
LINE
  8
2
  6
CONTINUOUS
 10
38.961840
 20
22.590403
 11
39.209701
 21
22.623035
  0
LINE
  8
2
  6
CONTINUOUS
 10
38.961840
 20
22.590403
 11
39.209701
 21
22.557772
  0
LINE
  8
2
  6
CONTINUOUS
 10
44.369533
 20
22.826530
 11
44.369533
 21
22.826530
  0
LINE
  8
2
  6
CONTINUOUS
 10
38.961840
 20
22.826530
 11
38.961840
 21
22.826530
  0
CIRCLE
  8
2
  6
CONTINUOUS
 10
41.116042
 20
22.590403
 40
0.041625
  0
CIRCLE
  8
2
  6
CONTINUOUS
 10
41.116042
 20
22.590403
 40
0.020750
  0
LINE
  8
6
  6
CONTINUOUS
 10
41.016042
 20
22.518530
 11
41.016042
 21
21.918530
  0
LINE
  8
6
  6
CONTINUOUS
 10
41.016042
 20
21.918530
 11
41.116042
 21
21.918530
  0
LINE
  8
6
  6
CONTINUOUS
 10
41.116042
 20
21.918530
 11
41.116042
 21
26.458530
  0
LINE
  8
2
  6
CONTINUOUS
 10
38.861840
 20
21.166668
 11
36.961840
 21
21.166668
  0
LINE
  8
2
  6
CONTINUOUS
 10
38.861840
 20
21.166668
 11
38.613979
 21
21.134036
  0
LINE
  8
2
  6
CONTINUOUS
 10
38.861840
 20
21.166668
 11
38.613979
 21
21.199299
  0
LINE
  8
2
  6
CONTINUOUS
 10
36.961840
 20
21.166668
 11
37.209701
 21
21.199299
  0
LINE
  8
2
  6
CONTINUOUS
 10
36.961840
 20
21.166668
 11
37.209701
 21
21.134036
  0
LINE
  8
2
  6
CONTINUOUS
 10
38.861840
 20
21.538530
 11
38.861840
 21
21.538530
  0
LINE
  8
2
  6
CONTINUOUS
 10
36.961840
 20
21.538530
 11
36.961840
 21
21.538530
  0
CIRCLE
  8
2
  6
CONTINUOUS
 10
37.393045
 20
21.166668
 40
0.041625
  0
CIRCLE
  8
2
  6
CONTINUOUS
 10
37.393045
 20
21.166668
 40
0.020750
  0
LINE
  8
6
  6
CONTINUOUS
 10
37.393045
 20
20.318530
 11
37.393045
 21
26.458530
  0
LINE
  8
6
  6
CONTINUOUS
 10
38.845628
 20
20.298530
 11
38.845628
 21
22.698530
  0
LINE
  8
2
  6
CONTINUOUS
 10
73.661840
 20
25.163849
 11
71.570412
 21
25.163849
  0
LINE
  8
2
  6
CONTINUOUS
 10
73.661840
 20
25.163849
 11
73.413979
 21
25.131217
  0
LINE
  8
2
  6
CONTINUOUS
 10
73.661840
 20
25.163849
 11
73.413979
 21
25.196480
  0
LINE
  8
2
  6
CONTINUOUS
 10
71.570412
 20
25.163849
 11
71.818273
 21
25.196480
  0
LINE
  8
2
  6
CONTINUOUS
 10
71.570412
 20
25.163849
 11
71.818273
 21
25.131217
  0
LINE
  8
2
  6
CONTINUOUS
 10
73.661840
 20
25.163849
 11
73.661840
 21
25.163849
  0
LINE
  8
2
  6
CONTINUOUS
 10
71.570412
 20
25.163849
 11
71.570412
 21
25.163849
  0
CIRCLE
  8
2
  6
CONTINUOUS
 10
71.893186
 20
25.163849
 40
0.041625
  0
CIRCLE
  8
2
  6
CONTINUOUS
 10
71.893186
 20
25.163849
 40
0.020750
  0
LINE
  8
6
  6
CONTINUOUS
 10
71.893186
 20
23.136286
 11
71.893186
 21
33.274097
  0
LINE
  8
2
  6
CONTINUOUS
 10
80.981840
 20
26.186097
 11
74.097311
 21
26.186097
  0
LINE
  8
2
  6
CONTINUOUS
 10
80.981840
 20
26.186097
 11
80.733979
 21
26.153466
  0
LINE
  8
2
  6
CONTINUOUS
 10
80.981840
 20
26.186097
 11
80.733979
 21
26.218729
  0
LINE
  8
2
  6
CONTINUOUS
 10
74.097311
 20
26.186097
 11
74.345173
 21
26.218729
  0
LINE
  8
2
  6
CONTINUOUS
 10
74.097311
 20
26.186097
 11
74.345173
 21
26.153466
  0
LINE
  8
2
  6
CONTINUOUS
 10
80.981840
 20
26.186097
 11
80.981840
 21
26.186097
  0
LINE
  8
2
  6
CONTINUOUS
 10
74.097311
 20
26.153466
 11
74.097311
 21
26.153466
  0
CIRCLE
  8
2
  6
CONTINUOUS
 10
75.179717
 20
26.186097
 40
0.041625
  0
CIRCLE
  8
2
  6
CONTINUOUS
 10
75.179717
 20
26.186097
 40
0.020750
  0
LINE
  8
6
  6
CONTINUOUS
 10
75.179717
 20
24.414098
 11
75.179717
 21
33.274098
  0
LINE
  8
2
  6
CONTINUOUS
 10
80.981840
 20
19.469121
 11
73.992485
 21
19.469121
  0
LINE
  8
2
  6
CONTINUOUS
 10
80.981840
 20
19.469121
 11
80.733979
 21
19.436489
  0
LINE
  8
2
  6
CONTINUOUS
 10
80.981840
 20
19.469121
 11
80.733979
 21
19.501752
  0
LINE
  8
2
  6
CONTINUOUS
 10
73.992485
 20
19.469121
 11
74.240346
 21
19.501752
  0
LINE
  8
2
  6
CONTINUOUS
 10
73.992485
 20
19.469121
 11
74.240346
 21
19.436489
  0
LINE
  8
2
  6
CONTINUOUS
 10
80.981840
 20
19.334098
 11
80.981840
 21
19.334098
  0
LINE
  8
2
  6
CONTINUOUS
 10
73.992485
 20
19.334098
 11
73.992485
 21
19.334098
  0
CIRCLE
  8
2
  6
CONTINUOUS
 10
76.802312
 20
19.469121
 40
0.041625
  0
CIRCLE
  8
2
  6
CONTINUOUS
 10
76.802312
 20
19.469121
 40
0.020750
  0
LINE
  8
6
  6
CONTINUOUS
 10
76.802312
 20
17.994098
 11
76.802312
 21
24.694098
  0
LINE
  8
2
  6
CONTINUOUS
 10
73.695065
 20
18.814624
 11
71.761840
 21
18.814624
  0
LINE
  8
2
  6
CONTINUOUS
 10
73.695065
 20
18.814624
 11
73.447204
 21
18.781993
  0
LINE
  8
2
  6
CONTINUOUS
 10
73.695065
 20
18.814624
 11
73.447204
 21
18.847256
  0
LINE
  8
2
  6
CONTINUOUS
 10
71.761840
 20
18.814624
 11
72.009701
 21
18.847256
  0
LINE
  8
2
  6
CONTINUOUS
 10
71.761840
 20
18.814624
 11
72.009701
 21
18.781993
  0
LINE
  8
2
  6
CONTINUOUS
 10
73.695065
 20
19.624100
 11
73.695065
 21
19.624100
  0
LINE
  8
2
  6
CONTINUOUS
 10
71.761840
 20
19.281339
 11
71.761840
 21
19.281339
  0
CIRCLE
  8
2
  6
CONTINUOUS
 10
73.330606
 20
18.814624
 40
0.041625
  0
CIRCLE
  8
2
  6
CONTINUOUS
 10
73.330606
 20
18.814624
 40
0.020750
  0
LINE
  8
6
  6
CONTINUOUS
 10
73.330606
 20
17.994097
 11
73.330606
 21
24.419063
  0
LINE
  8
2
  6
CONTINUOUS
 10
26.331195
 20
19.592101
 11
19.341840
 21
19.592101
  0
LINE
  8
2
  6
CONTINUOUS
 10
26.331195
 20
19.592101
 11
26.083334
 21
19.559469
  0
LINE
  8
2
  6
CONTINUOUS
 10
26.331195
 20
19.592101
 11
26.083334
 21
19.624732
  0
LINE
  8
2
  6
CONTINUOUS
 10
19.341840
 20
19.592101
 11
19.589701
 21
19.624732
  0
LINE
  8
2
  6
CONTINUOUS
 10
19.341840
 20
19.592101
 11
19.589701
 21
19.559469
  0
LINE
  8
2
  6
CONTINUOUS
 10
26.331195
 20
19.334098
 11
26.331195
 21
19.334098
  0
LINE
  8
2
  6
CONTINUOUS
 10
19.341840
 20
19.334098
 11
19.341840
 21
19.334098
  0
CIRCLE
  8
2
  6
CONTINUOUS
 10
20.688226
 20
19.592101
 40
0.041625
  0
CIRCLE
  8
2
  6
CONTINUOUS
 10
20.688226
 20
19.592101
 40
0.020750
  0
LINE
  8
6
  6
CONTINUOUS
 10
20.688226
 20
17.994098
 11
20.688226
 21
24.694098
  0
LINE
  8
2
  6
CONTINUOUS
 10
28.561840
 20
19.326518
 11
26.628615
 21
19.326518
  0
LINE
  8
2
  6
CONTINUOUS
 10
28.561840
 20
19.326518
 11
28.313979
 21
19.293886
  0
LINE
  8
2
  6
CONTINUOUS
 10
28.561840
 20
19.326518
 11
28.313979
 21
19.359149
  0
LINE
  8
2
  6
CONTINUOUS
 10
26.628615
 20
19.326518
 11
26.876476
 21
19.359149
  0
LINE
  8
2
  6
CONTINUOUS
 10
26.628615
 20
19.326518
 11
26.876476
 21
19.293886
  0
LINE
  8
2
  6
CONTINUOUS
 10
28.561840
 20
19.287643
 11
28.561840
 21
19.287643
  0
LINE
  8
2
  6
CONTINUOUS
 10
26.628615
 20
19.287643
 11
26.628615
 21
19.287643
  0
CIRCLE
  8
2
  6
CONTINUOUS
 10
26.934034
 20
19.326518
 40
0.041625
  0
CIRCLE
  8
2
  6
CONTINUOUS
 10
26.934034
 20
19.326518
 40
0.020750
  0
LINE
  8
6
  6
CONTINUOUS
 10
26.934034
 20
17.994098
 11
26.934034
 21
24.461821
  0
LINE
  8
2
  6
CONTINUOUS
 10
36.961840
 20
33.686241
 11
30.141840
 21
33.686241
  0
LINE
  8
2
  6
CONTINUOUS
 10
36.961840
 20
33.686241
 11
36.713979
 21
33.653610
  0
LINE
  8
2
  6
CONTINUOUS
 10
36.961840
 20
33.686241
 11
36.713979
 21
33.718873
  0
LINE
  8
2
  6
CONTINUOUS
 10
30.141840
 20
33.686241
 11
30.389701
 21
33.718873
  0
LINE
  8
2
  6
CONTINUOUS
 10
30.141840
 20
33.686241
 11
30.389701
 21
33.653610
  0
LINE
  8
2
  6
CONTINUOUS
 10
36.961840
 20
33.534096
 11
36.961840
 21
33.534096
  0
LINE
  8
2
  6
CONTINUOUS
 10
30.141840
 20
33.534096
 11
30.141840
 21
33.534096
  0
CIRCLE
  8
2
  6
CONTINUOUS
 10
33.076849
 20
33.686241
 40
0.041625
  0
CIRCLE
  8
2
  6
CONTINUOUS
 10
33.076849
 20
33.686241
 40
0.020750
  0
LINE
  8
6
  6
CONTINUOUS
 10
33.076849
 20
32.994096
 11
33.076849
 21
35.694096
  0
LINE
  8
2
  6
CONTINUOUS
 10
70.181840
 20
34.457638
 11
63.361840
 21
34.457638
  0
LINE
  8
2
  6
CONTINUOUS
 10
70.181840
 20
34.457638
 11
69.933979
 21
34.425006
  0
LINE
  8
2
  6
CONTINUOUS
 10
70.181840
 20
34.457638
 11
69.933979
 21
34.490270
  0
LINE
  8
2
  6
CONTINUOUS
 10
63.361840
 20
34.457638
 11
63.609701
 21
34.490270
  0
LINE
  8
2
  6
CONTINUOUS
 10
63.361840
 20
34.457638
 11
63.609701
 21
34.425006
  0
LINE
  8
2
  6
CONTINUOUS
 10
70.181840
 20
33.534096
 11
70.181840
 21
33.534096
  0
LINE
  8
2
  6
CONTINUOUS
 10
63.361840
 20
33.534096
 11
63.361840
 21
33.534096
  0
CIRCLE
  8
2
  6
CONTINUOUS
 10
65.033558
 20
34.457638
 40
0.041625
  0
CIRCLE
  8
2
  6
CONTINUOUS
 10
65.033558
 20
34.457638
 40
0.020750
  0
LINE
  8
6
  6
CONTINUOUS
 10
65.033558
 20
32.994096
 11
65.033558
 21
35.694096
  0
LINE
  8
2
  6
CONTINUOUS
 10
44.561840
 20
11.144254
 11
34.361840
 21
11.144254
  0
LINE
  8
2
  6
CONTINUOUS
 10
44.561840
 20
11.144254
 11
44.313979
 21
11.111623
  0
LINE
  8
2
  6
CONTINUOUS
 10
44.561840
 20
11.144254
 11
44.313979
 21
11.176886
  0
LINE
  8
2
  6
CONTINUOUS
 10
34.361840
 20
11.144254
 11
34.609701
 21
11.176886
  0
LINE
  8
2
  6
CONTINUOUS
 10
34.361840
 20
11.144254
 11
34.609701
 21
11.111623
  0
LINE
  8
2
  6
CONTINUOUS
 10
44.561840
 20
9.830530
 11
44.561840
 21
9.830530
  0
LINE
  8
2
  6
CONTINUOUS
 10
34.361840
 20
9.830530
 11
34.361840
 21
9.830530
  0
CIRCLE
  8
2
  6
CONTINUOUS
 10
40.065776
 20
11.144254
 40
0.041625
  0
CIRCLE
  8
2
  6
CONTINUOUS
 10
40.065776
 20
11.144254
 40
0.020750
  0
LINE
  8
6
  6
CONTINUOUS
 10
40.065776
 20
7.138530
 11
40.065776
 21
20.598530
  0
LINE
  8
2
  6
CONTINUOUS
 10
65.961840
 20
22.909643
 11
63.361840
 21
22.909643
  0
LINE
  8
2
  6
CONTINUOUS
 10
65.961840
 20
22.909643
 11
65.713979
 21
22.877012
  0
LINE
  8
2
  6
CONTINUOUS
 10
65.961840
 20
22.909643
 11
65.713979
 21
22.942275
  0
LINE
  8
2
  6
CONTINUOUS
 10
63.361840
 20
22.909643
 11
63.609701
 21
22.942275
  0
LINE
  8
2
  6
CONTINUOUS
 10
63.361840
 20
22.909643
 11
63.609701
 21
22.877012
  0
LINE
  8
2
  6
CONTINUOUS
 10
65.961840
 20
22.909643
 11
65.961840
 21
22.909643
  0
LINE
  8
2
  6
CONTINUOUS
 10
63.361840
 20
22.909643
 11
63.361840
 21
22.909643
  0
CIRCLE
  8
2
  6
CONTINUOUS
 10
64.119046
 20
22.909643
 40
0.041625
  0
CIRCLE
  8
2
  6
CONTINUOUS
 10
64.119046
 20
22.909643
 40
0.020750
  0
LINE
  8
6
  6
CONTINUOUS
 10
64.119046
 20
20.318530
 11
64.119046
 21
33.274098
  0
LINE
  8
6
  6
CONTINUOUS
 10
61.478052
 20
20.318530
 11
61.478052
 21
22.718530
  0
LINE
  8
2
  6
CONTINUOUS
 10
63.361840
 20
20.992234
 11
61.523254
 21
20.992234
  0
LINE
  8
2
  6
CONTINUOUS
 10
63.361840
 20
20.992234
 11
63.113979
 21
20.959603
  0
LINE
  8
2
  6
CONTINUOUS
 10
63.361840
 20
20.992234
 11
63.113979
 21
21.024866
  0
LINE
  8
2
  6
CONTINUOUS
 10
61.523254
 20
20.992234
 11
61.771115
 21
21.024866
  0
LINE
  8
2
  6
CONTINUOUS
 10
61.523254
 20
20.992234
 11
61.771115
 21
20.959603
  0
LINE
  8
2
  6
CONTINUOUS
 10
63.361840
 20
21.546530
 11
63.361840
 21
21.546530
  0
LINE
  8
2
  6
CONTINUOUS
 10
61.523254
 20
21.157906
 11
61.523254
 21
21.157906
  0
CIRCLE
  8
2
  6
CONTINUOUS
 10
62.943290
 20
20.992234
 40
0.041625
  0
CIRCLE
  8
2
  6
CONTINUOUS
 10
62.943290
 20
20.992234
 40
0.020750
  0
LINE
  8
6
  6
CONTINUOUS
 10
62.943290
 20
20.318530
 11
62.943290
 21
26.458530
  0
LINE
  8
2
  6
CONTINUOUS
 10
61.169533
 20
22.619373
 11
55.761840
 21
22.619373
  0
LINE
  8
2
  6
CONTINUOUS
 10
61.169533
 20
22.619373
 11
60.921672
 21
22.586741
  0
LINE
  8
2
  6
CONTINUOUS
 10
61.169533
 20
22.619373
 11
60.921672
 21
22.652004
  0
LINE
  8
2
  6
CONTINUOUS
 10
55.761840
 20
22.619373
 11
56.009701
 21
22.652004
  0
LINE
  8
2
  6
CONTINUOUS
 10
55.761840
 20
22.619373
 11
56.009701
 21
22.586741
  0
LINE
  8
2
  6
CONTINUOUS
 10
61.169533
 20
22.826530
 11
61.169533
 21
22.826530
  0
LINE
  8
2
  6
CONTINUOUS
 10
55.761840
 20
22.826530
 11
55.761840
 21
22.826530
  0
CIRCLE
  8
2
  6
CONTINUOUS
 10
59.743939
 20
22.619373
 40
0.041625
  0
CIRCLE
  8
2
  6
CONTINUOUS
 10
59.743939
 20
22.619373
 40
0.020750
  0
LINE
  8
6
  6
CONTINUOUS
 10
59.643939
 20
22.518530
 11
59.643939
 21
21.918530
  0
LINE
  8
6
  6
CONTINUOUS
 10
59.643939
 20
21.918530
 11
59.743939
 21
21.918530
  0
LINE
  8
6
  6
CONTINUOUS
 10
59.743939
 20
21.918530
 11
59.743939
 21
26.458530
  0
LINE
  8
2
  6
CONTINUOUS
 10
22.916089
 20
34.942396
 11
15.096088
 21
34.942396
  0
LINE
  8
2
  6
CONTINUOUS
 10
22.916089
 20
34.942396
 11
22.668228
 21
34.909764
  0
LINE
  8
2
  6
CONTINUOUS
 10
22.916089
 20
34.942396
 11
22.668228
 21
34.975028
  0
LINE
  8
2
  6
CONTINUOUS
 10
15.096088
 20
34.942396
 11
15.343949
 21
34.975028
  0
LINE
  8
2
  6
CONTINUOUS
 10
15.096088
 20
34.942396
 11
15.343949
 21
34.909764
  0
LINE
  8
2
  6
CONTINUOUS
 10
22.916089
 20
34.188878
 11
22.916089
 21
34.188878
  0
LINE
  8
2
  6
CONTINUOUS
 10
15.096088
 20
34.210097
 11
15.096088
 21
34.210097
  0
CIRCLE
  8
2
  6
CONTINUOUS
 10
18.259430
 20
34.942396
 40
0.041625
  0
CIRCLE
  8
2
  6
CONTINUOUS
 10
18.259430
 20
34.942396
 40
0.020750
  0
LINE
  8
6
  6
CONTINUOUS
 10
18.259430
 20
32.994096
 11
18.259430
 21
39.074096
  0
LINE
  8
2
  6
CONTINUOUS
 10
29.761839
 20
35.414096
 11
23.632628
 21
35.414096
  0
LINE
  8
2
  6
CONTINUOUS
 10
29.761839
 20
35.414096
 11
29.513978
 21
35.381465
  0
LINE
  8
2
  6
CONTINUOUS
 10
29.761839
 20
35.414096
 11
29.513978
 21
35.446728
  0
LINE
  8
2
  6
CONTINUOUS
 10
23.632628
 20
35.414096
 11
23.880489
 21
35.446728
  0
LINE
  8
2
  6
CONTINUOUS
 10
23.632628
 20
35.414096
 11
23.880489
 21
35.381465
  0
LINE
  8
2
  6
CONTINUOUS
 10
29.761839
 20
35.414096
 11
29.761839
 21
35.414096
  0
LINE
  8
2
  6
CONTINUOUS
 10
23.632628
 20
35.229979
 11
23.632628
 21
35.229979
  0
CIRCLE
  8
2
  6
CONTINUOUS
 10
26.008161
 20
35.414096
 40
0.041625
  0
CIRCLE
  8
2
  6
CONTINUOUS
 10
26.008161
 20
35.414096
 40
0.020750
  0
LINE
  8
6
  6
CONTINUOUS
 10
26.008161
 20
32.994096
 11
26.008161
 21
45.094096
  0
LINE
  8
2
  6
CONTINUOUS
 10
23.632628
 20
35.545588
 11
22.916089
 21
35.545588
  0
LINE
  8
2
  6
CONTINUOUS
 10
23.632628
 20
35.545588
 11
23.384767
 21
35.512957
  0
LINE
  8
2
  6
CONTINUOUS
 10
23.632628
 20
35.545588
 11
23.384767
 21
35.578220
  0
LINE
  8
2
  6
CONTINUOUS
 10
22.916089
 20
35.545588
 11
23.163950
 21
35.578220
  0
LINE
  8
2
  6
CONTINUOUS
 10
22.916089
 20
35.545588
 11
23.163950
 21
35.512957
  0
LINE
  8
2
  6
CONTINUOUS
 10
23.632628
 20
36.237304
 11
23.632628
 21
36.237304
  0
LINE
  8
2
  6
CONTINUOUS
 10
22.916089
 20
36.237304
 11
22.916089
 21
36.237304
  0
CIRCLE
  8
2
  6
CONTINUOUS
 10
23.321022
 20
35.545588
 40
0.041625
  0
CIRCLE
  8
2
  6
CONTINUOUS
 10
23.321022
 20
35.545588
 40
0.020750
  0
LINE
  8
6
  6
CONTINUOUS
 10
23.321022
 20
32.994097
 11
23.321022
 21
40.920981
  0
LINE
  8
2
  6
CONTINUOUS
 10
70.561841
 20
34.719080
 11
76.691052
 21
34.719080
  0
LINE
  8
2
  6
CONTINUOUS
 10
70.561841
 20
34.719080
 11
70.809702
 21
34.751712
  0
LINE
  8
2
  6
CONTINUOUS
 10
70.561841
 20
34.719080
 11
70.809702
 21
34.686449
  0
LINE
  8
2
  6
CONTINUOUS
 10
76.691052
 20
34.719080
 11
76.443191
 21
34.686449
  0
LINE
  8
2
  6
CONTINUOUS
 10
76.691052
 20
34.719080
 11
76.443191
 21
34.751712
  0
LINE
  8
2
  6
CONTINUOUS
 10
70.561841
 20
35.414096
 11
70.561841
 21
35.414096
  0
LINE
  8
2
  6
CONTINUOUS
 10
76.691052
 20
35.545588
 11
76.691052
 21
35.545588
  0
CIRCLE
  8
2
  6
CONTINUOUS
 10
74.055580
 20
34.719080
 40
0.041625
  0
CIRCLE
  8
2
  6
CONTINUOUS
 10
74.055580
 20
34.719080
 40
0.020750
  0
LINE
  8
6
  6
CONTINUOUS
 10
74.055580
 20
32.994096
 11
74.055580
 21
45.094096
  0
LINE
  8
2
  6
CONTINUOUS
 10
85.227592
 20
34.210097
 11
77.407591
 21
34.210097
  0
LINE
  8
2
  6
CONTINUOUS
 10
85.227592
 20
34.210097
 11
84.979731
 21
34.177466
  0
LINE
  8
2
  6
CONTINUOUS
 10
85.227592
 20
34.210097
 11
84.979731
 21
34.242729
  0
LINE
  8
2
  6
CONTINUOUS
 10
77.407591
 20
34.210097
 11
77.655452
 21
34.242729
  0
LINE
  8
2
  6
CONTINUOUS
 10
77.407591
 20
34.210097
 11
77.655452
 21
34.177466
  0
LINE
  8
2
  6
CONTINUOUS
 10
85.227592
 20
34.210097
 11
85.227592
 21
34.210097
  0
LINE
  8
2
  6
CONTINUOUS
 10
77.407591
 20
34.189081
 11
77.407591
 21
34.189081
  0
CIRCLE
  8
2
  6
CONTINUOUS
 10
79.416391
 20
34.210097
 40
0.041625
  0
CIRCLE
  8
2
  6
CONTINUOUS
 10
79.416391
 20
34.210097
 40
0.020750
  0
LINE
  8
6
  6
CONTINUOUS
 10
79.416391
 20
32.994096
 11
79.416391
 21
39.074096
  0
LINE
  8
2
  6
CONTINUOUS
 10
76.691052
 20
36.021522
 11
77.407591
 21
36.021522
  0
LINE
  8
2
  6
CONTINUOUS
 10
76.691052
 20
36.021522
 11
76.938913
 21
36.054154
  0
LINE
  8
2
  6
CONTINUOUS
 10
76.691052
 20
36.021522
 11
76.938913
 21
35.988891
  0
LINE
  8
2
  6
CONTINUOUS
 10
77.407591
 20
36.021522
 11
77.159730
 21
35.988891
  0
LINE
  8
2
  6
CONTINUOUS
 10
77.407591
 20
36.021522
 11
77.159730
 21
36.054154
  0
LINE
  8
2
  6
CONTINUOUS
 10
76.691052
 20
36.237304
 11
76.691052
 21
36.237304
  0
LINE
  8
2
  6
CONTINUOUS
 10
77.407591
 20
36.237304
 11
77.407591
 21
36.237304
  0
CIRCLE
  8
2
  6
CONTINUOUS
 10
77.002658
 20
36.021522
 40
0.041625
  0
CIRCLE
  8
2
  6
CONTINUOUS
 10
77.002658
 20
36.021522
 40
0.020750
  0
LINE
  8
6
  6
CONTINUOUS
 10
77.002658
 20
32.994097
 11
77.002658
 21
40.920981
  0
LINE
  8
2
  6
CONTINUOUS
 10
23.132628
 20
40.216089
 11
13.580221
 21
40.216089
  0
LINE
  8
2
  6
CONTINUOUS
 10
23.132628
 20
40.216089
 11
22.884767
 21
40.183457
  0
LINE
  8
2
  6
CONTINUOUS
 10
23.132628
 20
40.216089
 11
22.884767
 21
40.248720
  0
LINE
  8
2
  6
CONTINUOUS
 10
13.580221
 20
40.216089
 11
13.828083
 21
40.248720
  0
LINE
  8
2
  6
CONTINUOUS
 10
13.580221
 20
40.216089
 11
13.828083
 21
40.183457
  0
LINE
  8
2
  6
CONTINUOUS
 10
23.132628
 20
41.220538
 11
23.132628
 21
41.220538
  0
LINE
  8
2
  6
CONTINUOUS
 10
13.580221
 20
40.414096
 11
13.580221
 21
40.414096
  0
CIRCLE
  8
2
  6
CONTINUOUS
 10
17.023612
 20
40.216089
 40
0.041625
  0
CIRCLE
  8
2
  6
CONTINUOUS
 10
17.023612
 20
40.216089
 40
0.020750
  0
LINE
  8
6
  6
CONTINUOUS
 10
17.023612
 20
38.794096
 11
17.023612
 21
46.894096
  0
LINE
  8
2
  6
CONTINUOUS
 10
77.191052
 20
40.120175
 11
86.743459
 21
40.120175
  0
LINE
  8
2
  6
CONTINUOUS
 10
77.191052
 20
40.120175
 11
77.438913
 21
40.152807
  0
LINE
  8
2
  6
CONTINUOUS
 10
77.191052
 20
40.120175
 11
77.438913
 21
40.087544
  0
LINE
  8
2
  6
CONTINUOUS
 10
86.743459
 20
40.120175
 11
86.495597
 21
40.087544
  0
LINE
  8
2
  6
CONTINUOUS
 10
86.743459
 20
40.120175
 11
86.495597
 21
40.152807
  0
LINE
  8
2
  6
CONTINUOUS
 10
77.191052
 20
40.414096
 11
77.191052
 21
40.414096
  0
LINE
  8
2
  6
CONTINUOUS
 10
86.743459
 20
40.414096
 11
86.743459
 21
40.414096
  0
CIRCLE
  8
2
  6
CONTINUOUS
 10
82.743058
 20
40.120175
 40
0.041625
  0
CIRCLE
  8
2
  6
CONTINUOUS
 10
82.743058
 20
40.120175
 40
0.020750
  0
LINE
  8
6
  6
CONTINUOUS
 10
82.743058
 20
38.794096
 11
82.743058
 21
46.894096
  0
LINE
  8
2
  6
CONTINUOUS
 10
33.981840
 20
25.165643
 11
29.052045
 21
25.165643
  0
LINE
  8
2
  6
CONTINUOUS
 10
33.981840
 20
25.165643
 11
33.733979
 21
25.133011
  0
LINE
  8
2
  6
CONTINUOUS
 10
33.981840
 20
25.165643
 11
33.733979
 21
25.198275
  0
LINE
  8
2
  6
CONTINUOUS
 10
29.052045
 20
25.165643
 11
29.299906
 21
25.198275
  0
LINE
  8
2
  6
CONTINUOUS
 10
29.052045
 20
25.165643
 11
29.299906
 21
25.133011
  0
LINE
  8
2
  6
CONTINUOUS
 10
33.981840
 20
25.165643
 11
33.981840
 21
25.165643
  0
LINE
  8
2
  6
CONTINUOUS
 10
29.052045
 20
25.165643
 11
29.052045
 21
25.165643
  0
CIRCLE
  8
2
  6
CONTINUOUS
 10
30.752467
 20
25.165643
 40
0.041625
  0
CIRCLE
  8
2
  6
CONTINUOUS
 10
30.752467
 20
25.165643
 40
0.020750
  0
LINE
  8
6
  6
CONTINUOUS
 10
30.752467
 20
22.468530
 11
30.752467
 21
33.274097
  0
LINE
  8
2
  6
CONTINUOUS
 10
71.271635
 20
25.165643
 11
66.341840
 21
25.165643
  0
LINE
  8
2
  6
CONTINUOUS
 10
71.271635
 20
25.165643
 11
71.023774
 21
25.133011
  0
LINE
  8
2
  6
CONTINUOUS
 10
71.271635
 20
25.165643
 11
71.023774
 21
25.198275
  0
LINE
  8
2
  6
CONTINUOUS
 10
66.341840
 20
25.165643
 11
66.589701
 21
25.198275
  0
LINE
  8
2
  6
CONTINUOUS
 10
66.341840
 20
25.165643
 11
66.589701
 21
25.133011
  0
LINE
  8
2
  6
CONTINUOUS
 10
71.271635
 20
25.165643
 11
71.271635
 21
25.165643
  0
LINE
  8
2
  6
CONTINUOUS
 10
66.341840
 20
24.984331
 11
66.341840
 21
24.984331
  0
CIRCLE
  8
2
  6
CONTINUOUS
 10
68.822927
 20
25.165643
 40
0.041625
  0
CIRCLE
  8
2
  6
CONTINUOUS
 10
68.822927
 20
25.165643
 40
0.020750
  0
LINE
  8
6
  6
CONTINUOUS
 10
68.822927
 20
22.468530
 11
68.822927
 21
33.274097
  0
LINE
  8
2
  6
CONTINUOUS
 10
100.284870
 20
51.331902
 11
100.284870
 21
50.019402
  0
LINE
  8
2
  6
CONTINUOUS
 10
111.284870
 20
51.331902
 11
111.284870
 21
50.019402
  0
LINE
  8
2
  6
CONTINUOUS
 10
100.284870
 20
51.331902
 11
111.284870
 21
51.331902
  0
LINE
  8
2
  6
CONTINUOUS
 10
100.284870
 20
50.019402
 11
111.284870
 21
50.019402
  0
LINE
  8
2
  6
CONTINUOUS
 10
103.234870
 20
50.019402
 11
103.234870
 21
51.331902
  0
LINE
  8
2
  6
CONTINUOUS
 10
104.614870
 20
50.019402
 11
104.614870
 21
51.331902
  0
LINE
  8
2
  6
CONTINUOUS
 10
106.424870
 20
50.019402
 11
106.424870
 21
51.331902
  0
LINE
  8
2
  6
CONTINUOUS
 10
107.804870
 20
50.019402
 11
107.804870
 21
51.331902
  0
LINE
  8
2
  6
CONTINUOUS
 10
107.804870
 20
50.894402
 11
111.284870
 21
50.894402
  0
LINE
  8
2
  6
CONTINUOUS
 10
109.414870
 20
50.019402
 11
109.414870
 21
50.894402
  0
LINE
  8
2
  6
CONTINUOUS
 10
111.284870
 20
49.581902
 11
101.434870
 21
49.581902
  0
LINE
  8
2
  6
CONTINUOUS
 10
100.284870
 20
49.581902
 11
100.284870
 21
50.019402
  0
LINE
  8
2
  6
CONTINUOUS
 10
111.284870
 20
49.581902
 11
111.284870
 21
50.019402
  0
LINE
  8
2
  6
CONTINUOUS
 10
100.284870
 20
50.019402
 11
111.284870
 21
50.019402
  0
LINE
  8
2
  6
CONTINUOUS
 10
103.234870
 20
49.581902
 11
103.234870
 21
49.231902
  0
LINE
  8
2
  6
CONTINUOUS
 10
104.614870
 20
49.581902
 11
104.614870
 21
49.231902
  0
LINE
  8
2
  6
CONTINUOUS
 10
106.424870
 20
49.581902
 11
106.424870
 21
49.231902
  0
LINE
  8
2
  6
CONTINUOUS
 10
107.804870
 20
49.581902
 11
107.804870
 21
49.231902
  0
LINE
  8
2
  6
CONTINUOUS
 10
109.414870
 20
49.581902
 11
109.414870
 21
49.231902
  0
LINE
  8
2
  6
CONTINUOUS
 10
100.284870
 20
49.231902
 11
100.284870
 21
49.581902
  0
LINE
  8
2
  6
CONTINUOUS
 10
111.284870
 20
49.231902
 11
111.284870
 21
49.581902
  0
LINE
  8
2
  6
CONTINUOUS
 10
101.434870
 20
49.581902
 11
101.434870
 21
49.231902
  0
LINE
  8
2
  6
CONTINUOUS
 10
103.234870
 20
49.231902
 11
103.234870
 21
48.881902
  0
LINE
  8
2
  6
CONTINUOUS
 10
104.614870
 20
49.231902
 11
104.614870
 21
48.881902
  0
LINE
  8
2
  6
CONTINUOUS
 10
106.424870
 20
49.231902
 11
106.424870
 21
48.881902
  0
LINE
  8
2
  6
CONTINUOUS
 10
107.804870
 20
49.231902
 11
107.804870
 21
48.881902
  0
LINE
  8
2
  6
CONTINUOUS
 10
109.414870
 20
49.231902
 11
109.414870
 21
48.881902
  0
LINE
  8
2
  6
CONTINUOUS
 10
100.284870
 20
48.881902
 11
100.284870
 21
49.231902
  0
LINE
  8
2
  6
CONTINUOUS
 10
111.284870
 20
48.881902
 11
111.284870
 21
49.231902
  0
LINE
  8
2
  6
CONTINUOUS
 10
101.434870
 20
49.231902
 11
101.434870
 21
48.881902
  0
LINE
  8
2
  6
CONTINUOUS
 10
103.234870
 20
48.881902
 11
103.234870
 21
48.531902
  0
LINE
  8
2
  6
CONTINUOUS
 10
104.614870
 20
48.881902
 11
104.614870
 21
48.531902
  0
LINE
  8
2
  6
CONTINUOUS
 10
106.424870
 20
48.881902
 11
106.424870
 21
48.531902
  0
LINE
  8
2
  6
CONTINUOUS
 10
107.804870
 20
48.881902
 11
107.804870
 21
48.531902
  0
LINE
  8
2
  6
CONTINUOUS
 10
109.414870
 20
48.881902
 11
109.414870
 21
48.531902
  0
LINE
  8
2
  6
CONTINUOUS
 10
100.284870
 20
48.531902
 11
100.284870
 21
48.881902
  0
LINE
  8
2
  6
CONTINUOUS
 10
111.284870
 20
48.531902
 11
111.284870
 21
48.881902
  0
LINE
  8
2
  6
CONTINUOUS
 10
101.434870
 20
48.881902
 11
101.434870
 21
48.531902
  0
LINE
  8
2
  6
CONTINUOUS
 10
103.234870
 20
48.531902
 11
103.234870
 21
48.181902
  0
LINE
  8
2
  6
CONTINUOUS
 10
104.614870
 20
48.531902
 11
104.614870
 21
48.181902
  0
LINE
  8
2
  6
CONTINUOUS
 10
106.424870
 20
48.531902
 11
106.424870
 21
48.181902
  0
LINE
  8
2
  6
CONTINUOUS
 10
107.804870
 20
48.531902
 11
107.804870
 21
48.181902
  0
LINE
  8
2
  6
CONTINUOUS
 10
109.414870
 20
48.531902
 11
109.414870
 21
48.181902
  0
LINE
  8
2
  6
CONTINUOUS
 10
100.284870
 20
48.181902
 11
100.284870
 21
48.531902
  0
LINE
  8
2
  6
CONTINUOUS
 10
111.284870
 20
48.181902
 11
111.284870
 21
48.531902
  0
LINE
  8
2
  6
CONTINUOUS
 10
101.434870
 20
48.531902
 11
101.434870
 21
48.181902
  0
LINE
  8
2
  6
CONTINUOUS
 10
103.234870
 20
48.181902
 11
103.234870
 21
47.831902
  0
LINE
  8
2
  6
CONTINUOUS
 10
104.614870
 20
48.181902
 11
104.614870
 21
47.831902
  0
LINE
  8
2
  6
CONTINUOUS
 10
106.424870
 20
48.181902
 11
106.424870
 21
47.831902
  0
LINE
  8
2
  6
CONTINUOUS
 10
107.804870
 20
48.181902
 11
107.804870
 21
47.831902
  0
LINE
  8
2
  6
CONTINUOUS
 10
109.414870
 20
48.181902
 11
109.414870
 21
47.831902
  0
LINE
  8
2
  6
CONTINUOUS
 10
100.284870
 20
47.831902
 11
100.284870
 21
48.181902
  0
LINE
  8
2
  6
CONTINUOUS
 10
111.284870
 20
47.831902
 11
111.284870
 21
48.181902
  0
LINE
  8
2
  6
CONTINUOUS
 10
101.434870
 20
48.181902
 11
101.434870
 21
47.831902
  0
LINE
  8
2
  6
CONTINUOUS
 10
103.234870
 20
47.831902
 11
103.234870
 21
47.481902
  0
LINE
  8
2
  6
CONTINUOUS
 10
104.614870
 20
47.831902
 11
104.614870
 21
47.481902
  0
LINE
  8
2
  6
CONTINUOUS
 10
106.424870
 20
47.831902
 11
106.424870
 21
47.481902
  0
LINE
  8
2
  6
CONTINUOUS
 10
107.804870
 20
47.831902
 11
107.804870
 21
47.481902
  0
LINE
  8
2
  6
CONTINUOUS
 10
109.414870
 20
47.831902
 11
109.414870
 21
47.481902
  0
LINE
  8
2
  6
CONTINUOUS
 10
100.284870
 20
47.481902
 11
100.284870
 21
47.831902
  0
LINE
  8
2
  6
CONTINUOUS
 10
111.284870
 20
47.481902
 11
111.284870
 21
47.831902
  0
LINE
  8
2
  6
CONTINUOUS
 10
101.434870
 20
47.831902
 11
101.434870
 21
47.481902
  0
LINE
  8
2
  6
CONTINUOUS
 10
103.234870
 20
47.481902
 11
103.234870
 21
47.131903
  0
LINE
  8
2
  6
CONTINUOUS
 10
104.614870
 20
47.481902
 11
104.614870
 21
47.131903
  0
LINE
  8
2
  6
CONTINUOUS
 10
106.424870
 20
47.481902
 11
106.424870
 21
47.131903
  0
LINE
  8
2
  6
CONTINUOUS
 10
107.804870
 20
47.481902
 11
107.804870
 21
47.131903
  0
LINE
  8
2
  6
CONTINUOUS
 10
109.414870
 20
47.481902
 11
109.414870
 21
47.131903
  0
LINE
  8
2
  6
CONTINUOUS
 10
100.284870
 20
47.131903
 11
100.284870
 21
47.481902
  0
LINE
  8
2
  6
CONTINUOUS
 10
111.284870
 20
47.131903
 11
111.284870
 21
47.481902
  0
LINE
  8
2
  6
CONTINUOUS
 10
101.434870
 20
47.481902
 11
101.434870
 21
47.131903
  0
LINE
  8
2
  6
CONTINUOUS
 10
103.234870
 20
47.131903
 11
103.234870
 21
46.781903
  0
LINE
  8
2
  6
CONTINUOUS
 10
104.614870
 20
47.131903
 11
104.614870
 21
46.781903
  0
LINE
  8
2
  6
CONTINUOUS
 10
106.424870
 20
47.131903
 11
106.424870
 21
46.781903
  0
LINE
  8
2
  6
CONTINUOUS
 10
107.804870
 20
47.131903
 11
107.804870
 21
46.781903
  0
LINE
  8
2
  6
CONTINUOUS
 10
109.414870
 20
47.131903
 11
109.414870
 21
46.781903
  0
LINE
  8
2
  6
CONTINUOUS
 10
100.284870
 20
46.781903
 11
100.284870
 21
47.131903
  0
LINE
  8
2
  6
CONTINUOUS
 10
111.284870
 20
46.781903
 11
111.284870
 21
47.131903
  0
LINE
  8
2
  6
CONTINUOUS
 10
101.434870
 20
47.131903
 11
101.434870
 21
46.781903
  0
LINE
  8
2
  6
CONTINUOUS
 10
103.234870
 20
46.781903
 11
103.234870
 21
46.431903
  0
LINE
  8
2
  6
CONTINUOUS
 10
104.614870
 20
46.781903
 11
104.614870
 21
46.431903
  0
LINE
  8
2
  6
CONTINUOUS
 10
106.424870
 20
46.781903
 11
106.424870
 21
46.431903
  0
LINE
  8
2
  6
CONTINUOUS
 10
107.804870
 20
46.781903
 11
107.804870
 21
46.431903
  0
LINE
  8
2
  6
CONTINUOUS
 10
109.414870
 20
46.781903
 11
109.414870
 21
46.431903
  0
LINE
  8
2
  6
CONTINUOUS
 10
100.284870
 20
46.431903
 11
100.284870
 21
46.781903
  0
LINE
  8
2
  6
CONTINUOUS
 10
111.284870
 20
46.431903
 11
111.284870
 21
46.781903
  0
LINE
  8
2
  6
CONTINUOUS
 10
101.434870
 20
46.781903
 11
101.434870
 21
46.431903
  0
LINE
  8
2
  6
CONTINUOUS
 10
103.234870
 20
46.431903
 11
103.234870
 21
46.081903
  0
LINE
  8
2
  6
CONTINUOUS
 10
104.614870
 20
46.431903
 11
104.614870
 21
46.081903
  0
LINE
  8
2
  6
CONTINUOUS
 10
106.424870
 20
46.431903
 11
106.424870
 21
46.081903
  0
LINE
  8
2
  6
CONTINUOUS
 10
107.804870
 20
46.431903
 11
107.804870
 21
46.081903
  0
LINE
  8
2
  6
CONTINUOUS
 10
109.414870
 20
46.431903
 11
109.414870
 21
46.081903
  0
LINE
  8
2
  6
CONTINUOUS
 10
100.284870
 20
46.081903
 11
100.284870
 21
46.431903
  0
LINE
  8
2
  6
CONTINUOUS
 10
111.284870
 20
46.081903
 11
111.284870
 21
46.431903
  0
LINE
  8
2
  6
CONTINUOUS
 10
101.434870
 20
46.431903
 11
101.434870
 21
46.081903
  0
LINE
  8
2
  6
CONTINUOUS
 10
103.234870
 20
46.081903
 11
103.234870
 21
45.731903
  0
LINE
  8
2
  6
CONTINUOUS
 10
104.614870
 20
46.081903
 11
104.614870
 21
45.731903
  0
LINE
  8
2
  6
CONTINUOUS
 10
106.424870
 20
46.081903
 11
106.424870
 21
45.731903
  0
LINE
  8
2
  6
CONTINUOUS
 10
107.804870
 20
46.081903
 11
107.804870
 21
45.731903
  0
LINE
  8
2
  6
CONTINUOUS
 10
109.414870
 20
46.081903
 11
109.414870
 21
45.731903
  0
LINE
  8
2
  6
CONTINUOUS
 10
100.284870
 20
45.731903
 11
100.284870
 21
46.081903
  0
LINE
  8
2
  6
CONTINUOUS
 10
111.284870
 20
45.731903
 11
111.284870
 21
46.081903
  0
LINE
  8
2
  6
CONTINUOUS
 10
101.434870
 20
46.081903
 11
101.434870
 21
45.731903
  0
LINE
  8
2
  6
CONTINUOUS
 10
103.234870
 20
45.731903
 11
103.234870
 21
45.381903
  0
LINE
  8
2
  6
CONTINUOUS
 10
104.614870
 20
45.731903
 11
104.614870
 21
45.381903
  0
LINE
  8
2
  6
CONTINUOUS
 10
106.424870
 20
45.731903
 11
106.424870
 21
45.381903
  0
LINE
  8
2
  6
CONTINUOUS
 10
107.804870
 20
45.731903
 11
107.804870
 21
45.381903
  0
LINE
  8
2
  6
CONTINUOUS
 10
109.414870
 20
45.731903
 11
109.414870
 21
45.381903
  0
LINE
  8
2
  6
CONTINUOUS
 10
100.284870
 20
45.381903
 11
100.284870
 21
45.731903
  0
LINE
  8
2
  6
CONTINUOUS
 10
111.284870
 20
45.381903
 11
111.284870
 21
45.731903
  0
LINE
  8
2
  6
CONTINUOUS
 10
101.434870
 20
45.731903
 11
101.434870
 21
45.381903
  0
LINE
  8
2
  6
CONTINUOUS
 10
103.234870
 20
45.381903
 11
103.234870
 21
45.031903
  0
LINE
  8
2
  6
CONTINUOUS
 10
104.614870
 20
45.381903
 11
104.614870
 21
45.031903
  0
LINE
  8
2
  6
CONTINUOUS
 10
106.424870
 20
45.381903
 11
106.424870
 21
45.031903
  0
LINE
  8
2
  6
CONTINUOUS
 10
107.804870
 20
45.381903
 11
107.804870
 21
45.031903
  0
LINE
  8
2
  6
CONTINUOUS
 10
109.414870
 20
45.381903
 11
109.414870
 21
45.031903
  0
LINE
  8
2
  6
CONTINUOUS
 10
100.284870
 20
45.031903
 11
100.284870
 21
45.381903
  0
LINE
  8
2
  6
CONTINUOUS
 10
111.284870
 20
45.031903
 11
111.284870
 21
45.381903
  0
LINE
  8
2
  6
CONTINUOUS
 10
101.434870
 20
45.381903
 11
101.434870
 21
45.031903
  0
LINE
  8
2
  6
CONTINUOUS
 10
103.234870
 20
45.031903
 11
103.234870
 21
44.681903
  0
LINE
  8
2
  6
CONTINUOUS
 10
104.614870
 20
45.031903
 11
104.614870
 21
44.681903
  0
LINE
  8
2
  6
CONTINUOUS
 10
106.424870
 20
45.031903
 11
106.424870
 21
44.681903
  0
LINE
  8
2
  6
CONTINUOUS
 10
107.804870
 20
45.031903
 11
107.804870
 21
44.681903
  0
LINE
  8
2
  6
CONTINUOUS
 10
109.414870
 20
45.031903
 11
109.414870
 21
44.681903
  0
LINE
  8
2
  6
CONTINUOUS
 10
100.284870
 20
44.681903
 11
100.284870
 21
45.031903
  0
LINE
  8
2
  6
CONTINUOUS
 10
111.284870
 20
44.681903
 11
111.284870
 21
45.031903
  0
LINE
  8
2
  6
CONTINUOUS
 10
101.434870
 20
45.031903
 11
101.434870
 21
44.681903
  0
LINE
  8
2
  6
CONTINUOUS
 10
103.234870
 20
44.681903
 11
103.234870
 21
44.331903
  0
LINE
  8
2
  6
CONTINUOUS
 10
104.614870
 20
44.681903
 11
104.614870
 21
44.331903
  0
LINE
  8
2
  6
CONTINUOUS
 10
106.424870
 20
44.681903
 11
106.424870
 21
44.331903
  0
LINE
  8
2
  6
CONTINUOUS
 10
107.804870
 20
44.681903
 11
107.804870
 21
44.331903
  0
LINE
  8
2
  6
CONTINUOUS
 10
109.414870
 20
44.681903
 11
109.414870
 21
44.331903
  0
LINE
  8
2
  6
CONTINUOUS
 10
100.284870
 20
44.331903
 11
100.284870
 21
44.681903
  0
LINE
  8
2
  6
CONTINUOUS
 10
111.284870
 20
44.331903
 11
111.284870
 21
44.681903
  0
LINE
  8
2
  6
CONTINUOUS
 10
101.434870
 20
44.681903
 11
101.434870
 21
44.331903
  0
LINE
  8
2
  6
CONTINUOUS
 10
103.234870
 20
44.331903
 11
103.234870
 21
43.981903
  0
LINE
  8
2
  6
CONTINUOUS
 10
104.614870
 20
44.331903
 11
104.614870
 21
43.981903
  0
LINE
  8
2
  6
CONTINUOUS
 10
106.424870
 20
44.331903
 11
106.424870
 21
43.981903
  0
LINE
  8
2
  6
CONTINUOUS
 10
107.804870
 20
44.331903
 11
107.804870
 21
43.981903
  0
LINE
  8
2
  6
CONTINUOUS
 10
109.414870
 20
44.331903
 11
109.414870
 21
43.981903
  0
LINE
  8
2
  6
CONTINUOUS
 10
100.284870
 20
43.981903
 11
100.284870
 21
44.331903
  0
LINE
  8
2
  6
CONTINUOUS
 10
111.284870
 20
43.981903
 11
111.284870
 21
44.331903
  0
LINE
  8
2
  6
CONTINUOUS
 10
101.434870
 20
44.331903
 11
101.434870
 21
43.981903
  0
LINE
  8
2
  6
CONTINUOUS
 10
103.234870
 20
43.981903
 11
103.234870
 21
43.631904
  0
LINE
  8
2
  6
CONTINUOUS
 10
104.614870
 20
43.981903
 11
104.614870
 21
43.631904
  0
LINE
  8
2
  6
CONTINUOUS
 10
106.424870
 20
43.981903
 11
106.424870
 21
43.631904
  0
LINE
  8
2
  6
CONTINUOUS
 10
107.804870
 20
43.981903
 11
107.804870
 21
43.631904
  0
LINE
  8
2
  6
CONTINUOUS
 10
109.414870
 20
43.981903
 11
109.414870
 21
43.631904
  0
LINE
  8
2
  6
CONTINUOUS
 10
100.284870
 20
43.631904
 11
100.284870
 21
43.981903
  0
LINE
  8
2
  6
CONTINUOUS
 10
111.284870
 20
43.631904
 11
111.284870
 21
43.981903
  0
LINE
  8
2
  6
CONTINUOUS
 10
101.434870
 20
43.981903
 11
101.434870
 21
43.631904
  0
LINE
  8
2
  6
CONTINUOUS
 10
103.234870
 20
43.631904
 11
103.234870
 21
43.281904
  0
LINE
  8
2
  6
CONTINUOUS
 10
104.614870
 20
43.631904
 11
104.614870
 21
43.281904
  0
LINE
  8
2
  6
CONTINUOUS
 10
106.424870
 20
43.631904
 11
106.424870
 21
43.281904
  0
LINE
  8
2
  6
CONTINUOUS
 10
107.804870
 20
43.631904
 11
107.804870
 21
43.281904
  0
LINE
  8
2
  6
CONTINUOUS
 10
109.414870
 20
43.631904
 11
109.414870
 21
43.281904
  0
LINE
  8
2
  6
CONTINUOUS
 10
100.284870
 20
43.281904
 11
100.284870
 21
43.631904
  0
LINE
  8
2
  6
CONTINUOUS
 10
111.284870
 20
43.281904
 11
111.284870
 21
43.631904
  0
LINE
  8
2
  6
CONTINUOUS
 10
101.434870
 20
43.631904
 11
101.434870
 21
43.281904
  0
LINE
  8
2
  6
CONTINUOUS
 10
103.234870
 20
43.281904
 11
103.234870
 21
42.931904
  0
LINE
  8
2
  6
CONTINUOUS
 10
104.614870
 20
43.281904
 11
104.614870
 21
42.931904
  0
LINE
  8
2
  6
CONTINUOUS
 10
106.424870
 20
43.281904
 11
106.424870
 21
42.931904
  0
LINE
  8
2
  6
CONTINUOUS
 10
107.804870
 20
43.281904
 11
107.804870
 21
42.931904
  0
LINE
  8
2
  6
CONTINUOUS
 10
109.414870
 20
43.281904
 11
109.414870
 21
42.931904
  0
LINE
  8
2
  6
CONTINUOUS
 10
100.284870
 20
42.931904
 11
100.284870
 21
43.281904
  0
LINE
  8
2
  6
CONTINUOUS
 10
111.284870
 20
42.931904
 11
111.284870
 21
43.281904
  0
LINE
  8
2
  6
CONTINUOUS
 10
101.434870
 20
43.281904
 11
101.434870
 21
42.931904
  0
LINE
  8
2
  6
CONTINUOUS
 10
103.234870
 20
42.931904
 11
103.234870
 21
42.581904
  0
LINE
  8
2
  6
CONTINUOUS
 10
104.614870
 20
42.931904
 11
104.614870
 21
42.581904
  0
LINE
  8
2
  6
CONTINUOUS
 10
106.424870
 20
42.931904
 11
106.424870
 21
42.581904
  0
LINE
  8
2
  6
CONTINUOUS
 10
107.804870
 20
42.931904
 11
107.804870
 21
42.581904
  0
LINE
  8
2
  6
CONTINUOUS
 10
109.414870
 20
42.931904
 11
109.414870
 21
42.581904
  0
LINE
  8
2
  6
CONTINUOUS
 10
100.284870
 20
42.581904
 11
100.284870
 21
42.931904
  0
LINE
  8
2
  6
CONTINUOUS
 10
111.284870
 20
42.581904
 11
111.284870
 21
42.931904
  0
LINE
  8
2
  6
CONTINUOUS
 10
101.434870
 20
42.931904
 11
101.434870
 21
42.581904
  0
LINE
  8
2
  6
CONTINUOUS
 10
103.234870
 20
42.581904
 11
103.234870
 21
42.231904
  0
LINE
  8
2
  6
CONTINUOUS
 10
104.614870
 20
42.581904
 11
104.614870
 21
42.231904
  0
LINE
  8
2
  6
CONTINUOUS
 10
106.424870
 20
42.581904
 11
106.424870
 21
42.231904
  0
LINE
  8
2
  6
CONTINUOUS
 10
107.804870
 20
42.581904
 11
107.804870
 21
42.231904
  0
LINE
  8
2
  6
CONTINUOUS
 10
109.414870
 20
42.581904
 11
109.414870
 21
42.231904
  0
LINE
  8
2
  6
CONTINUOUS
 10
100.284870
 20
42.231904
 11
100.284870
 21
42.581904
  0
LINE
  8
2
  6
CONTINUOUS
 10
111.284870
 20
42.231904
 11
111.284870
 21
42.581904
  0
LINE
  8
2
  6
CONTINUOUS
 10
101.434870
 20
42.581904
 11
101.434870
 21
42.231904
  0
LINE
  8
2
  6
CONTINUOUS
 10
103.234870
 20
42.231904
 11
103.234870
 21
41.881904
  0
LINE
  8
2
  6
CONTINUOUS
 10
104.614870
 20
42.231904
 11
104.614870
 21
41.881904
  0
LINE
  8
2
  6
CONTINUOUS
 10
106.424870
 20
42.231904
 11
106.424870
 21
41.881904
  0
LINE
  8
2
  6
CONTINUOUS
 10
107.804870
 20
42.231904
 11
107.804870
 21
41.881904
  0
LINE
  8
2
  6
CONTINUOUS
 10
109.414870
 20
42.231904
 11
109.414870
 21
41.881904
  0
LINE
  8
2
  6
CONTINUOUS
 10
100.284870
 20
41.881904
 11
100.284870
 21
42.231904
  0
LINE
  8
2
  6
CONTINUOUS
 10
111.284870
 20
41.881904
 11
111.284870
 21
42.231904
  0
LINE
  8
2
  6
CONTINUOUS
 10
101.434870
 20
42.231904
 11
101.434870
 21
41.881904
  0
LINE
  8
2
  6
CONTINUOUS
 10
103.234870
 20
41.881904
 11
103.234870
 21
41.531904
  0
LINE
  8
2
  6
CONTINUOUS
 10
104.614870
 20
41.881904
 11
104.614870
 21
41.531904
  0
LINE
  8
2
  6
CONTINUOUS
 10
106.424870
 20
41.881904
 11
106.424870
 21
41.531904
  0
LINE
  8
2
  6
CONTINUOUS
 10
107.804870
 20
41.881904
 11
107.804870
 21
41.531904
  0
LINE
  8
2
  6
CONTINUOUS
 10
109.414870
 20
41.881904
 11
109.414870
 21
41.531904
  0
LINE
  8
2
  6
CONTINUOUS
 10
100.284870
 20
41.531904
 11
100.284870
 21
41.881904
  0
LINE
  8
2
  6
CONTINUOUS
 10
111.284870
 20
41.531904
 11
111.284870
 21
41.881904
  0
LINE
  8
2
  6
CONTINUOUS
 10
101.434870
 20
41.881904
 11
101.434870
 21
41.531904
  0
LINE
  8
2
  6
CONTINUOUS
 10
103.234870
 20
41.531904
 11
103.234870
 21
41.181904
  0
LINE
  8
2
  6
CONTINUOUS
 10
104.614870
 20
41.531904
 11
104.614870
 21
41.181904
  0
LINE
  8
2
  6
CONTINUOUS
 10
106.424870
 20
41.531904
 11
106.424870
 21
41.181904
  0
LINE
  8
2
  6
CONTINUOUS
 10
107.804870
 20
41.531904
 11
107.804870
 21
41.181904
  0
LINE
  8
2
  6
CONTINUOUS
 10
109.414870
 20
41.531904
 11
109.414870
 21
41.181904
  0
LINE
  8
2
  6
CONTINUOUS
 10
100.284870
 20
41.181904
 11
100.284870
 21
41.531904
  0
LINE
  8
2
  6
CONTINUOUS
 10
111.284870
 20
41.181904
 11
111.284870
 21
41.531904
  0
LINE
  8
2
  6
CONTINUOUS
 10
101.434870
 20
41.531904
 11
101.434870
 21
41.181904
  0
LINE
  8
2
  6
CONTINUOUS
 10
103.234870
 20
41.181904
 11
103.234870
 21
40.831904
  0
LINE
  8
2
  6
CONTINUOUS
 10
104.614870
 20
41.181904
 11
104.614870
 21
40.831904
  0
LINE
  8
2
  6
CONTINUOUS
 10
106.424870
 20
41.181904
 11
106.424870
 21
40.831904
  0
LINE
  8
2
  6
CONTINUOUS
 10
107.804870
 20
41.181904
 11
107.804870
 21
40.831904
  0
LINE
  8
2
  6
CONTINUOUS
 10
109.414870
 20
41.181904
 11
109.414870
 21
40.831904
  0
LINE
  8
2
  6
CONTINUOUS
 10
100.284870
 20
40.831904
 11
100.284870
 21
41.181904
  0
LINE
  8
2
  6
CONTINUOUS
 10
111.284870
 20
40.831904
 11
111.284870
 21
41.181904
  0
LINE
  8
2
  6
CONTINUOUS
 10
101.434870
 20
41.181904
 11
101.434870
 21
40.831904
  0
LINE
  8
2
  6
CONTINUOUS
 10
103.234870
 20
40.831904
 11
103.234870
 21
40.481904
  0
LINE
  8
2
  6
CONTINUOUS
 10
104.614870
 20
40.831904
 11
104.614870
 21
40.481904
  0
LINE
  8
2
  6
CONTINUOUS
 10
106.424870
 20
40.831904
 11
106.424870
 21
40.481904
  0
LINE
  8
2
  6
CONTINUOUS
 10
107.804870
 20
40.831904
 11
107.804870
 21
40.481904
  0
LINE
  8
2
  6
CONTINUOUS
 10
109.414870
 20
40.831904
 11
109.414870
 21
40.481904
  0
LINE
  8
2
  6
CONTINUOUS
 10
100.284870
 20
40.481904
 11
100.284870
 21
40.831904
  0
LINE
  8
2
  6
CONTINUOUS
 10
111.284870
 20
40.481904
 11
111.284870
 21
40.831904
  0
LINE
  8
2
  6
CONTINUOUS
 10
101.434870
 20
40.831904
 11
101.434870
 21
40.481904
  0
LINE
  8
2
  6
CONTINUOUS
 10
103.234870
 20
40.481904
 11
103.234870
 21
40.131904
  0
LINE
  8
2
  6
CONTINUOUS
 10
104.614870
 20
40.481904
 11
104.614870
 21
40.131904
  0
LINE
  8
2
  6
CONTINUOUS
 10
106.424870
 20
40.481904
 11
106.424870
 21
40.131904
  0
LINE
  8
2
  6
CONTINUOUS
 10
107.804870
 20
40.481904
 11
107.804870
 21
40.131904
  0
LINE
  8
2
  6
CONTINUOUS
 10
109.414870
 20
40.481904
 11
109.414870
 21
40.131904
  0
LINE
  8
2
  6
CONTINUOUS
 10
100.284870
 20
40.131904
 11
100.284870
 21
40.481904
  0
LINE
  8
2
  6
CONTINUOUS
 10
111.284870
 20
40.131904
 11
111.284870
 21
40.481904
  0
LINE
  8
2
  6
CONTINUOUS
 10
101.434870
 20
40.481904
 11
101.434870
 21
40.131904
  0
LINE
  8
2
  6
CONTINUOUS
 10
103.234870
 20
40.131904
 11
103.234870
 21
39.781905
  0
LINE
  8
2
  6
CONTINUOUS
 10
104.614870
 20
40.131904
 11
104.614870
 21
39.781905
  0
LINE
  8
2
  6
CONTINUOUS
 10
106.424870
 20
40.131904
 11
106.424870
 21
39.781905
  0
LINE
  8
2
  6
CONTINUOUS
 10
107.804870
 20
40.131904
 11
107.804870
 21
39.781905
  0
LINE
  8
2
  6
CONTINUOUS
 10
109.414870
 20
40.131904
 11
109.414870
 21
39.781905
  0
LINE
  8
2
  6
CONTINUOUS
 10
100.284870
 20
39.781905
 11
100.284870
 21
40.131904
  0
LINE
  8
2
  6
CONTINUOUS
 10
111.284870
 20
39.781905
 11
111.284870
 21
40.131904
  0
LINE
  8
2
  6
CONTINUOUS
 10
101.434870
 20
40.131904
 11
101.434870
 21
39.781905
  0
LINE
  8
2
  6
CONTINUOUS
 10
103.234870
 20
39.781905
 11
103.234870
 21
39.431905
  0
LINE
  8
2
  6
CONTINUOUS
 10
104.614870
 20
39.781905
 11
104.614870
 21
39.431905
  0
LINE
  8
2
  6
CONTINUOUS
 10
106.424870
 20
39.781905
 11
106.424870
 21
39.431905
  0
LINE
  8
2
  6
CONTINUOUS
 10
107.804870
 20
39.781905
 11
107.804870
 21
39.431905
  0
LINE
  8
2
  6
CONTINUOUS
 10
109.414870
 20
39.781905
 11
109.414870
 21
39.431905
  0
LINE
  8
2
  6
CONTINUOUS
 10
100.284870
 20
39.431905
 11
100.284870
 21
39.781905
  0
LINE
  8
2
  6
CONTINUOUS
 10
111.284870
 20
39.431905
 11
111.284870
 21
39.781905
  0
LINE
  8
2
  6
CONTINUOUS
 10
101.434870
 20
39.781905
 11
101.434870
 21
39.431905
  0
LINE
  8
2
  6
CONTINUOUS
 10
103.234870
 20
39.431905
 11
103.234870
 21
39.081905
  0
LINE
  8
2
  6
CONTINUOUS
 10
104.614870
 20
39.431905
 11
104.614870
 21
39.081905
  0
LINE
  8
2
  6
CONTINUOUS
 10
106.424870
 20
39.431905
 11
106.424870
 21
39.081905
  0
LINE
  8
2
  6
CONTINUOUS
 10
107.804870
 20
39.431905
 11
107.804870
 21
39.081905
  0
LINE
  8
2
  6
CONTINUOUS
 10
109.414870
 20
39.431905
 11
109.414870
 21
39.081905
  0
LINE
  8
2
  6
CONTINUOUS
 10
100.284870
 20
39.081905
 11
100.284870
 21
39.431905
  0
LINE
  8
2
  6
CONTINUOUS
 10
111.284870
 20
39.081905
 11
111.284870
 21
39.431905
  0
LINE
  8
2
  6
CONTINUOUS
 10
101.434870
 20
39.431905
 11
101.434870
 21
39.081905
  0
LINE
  8
2
  6
CONTINUOUS
 10
103.234870
 20
39.081905
 11
103.234870
 21
38.731905
  0
LINE
  8
2
  6
CONTINUOUS
 10
104.614870
 20
39.081905
 11
104.614870
 21
38.731905
  0
LINE
  8
2
  6
CONTINUOUS
 10
106.424870
 20
39.081905
 11
106.424870
 21
38.731905
  0
LINE
  8
2
  6
CONTINUOUS
 10
107.804870
 20
39.081905
 11
107.804870
 21
38.731905
  0
LINE
  8
2
  6
CONTINUOUS
 10
109.414870
 20
39.081905
 11
109.414870
 21
38.731905
  0
LINE
  8
2
  6
CONTINUOUS
 10
100.284870
 20
38.731905
 11
100.284870
 21
39.081905
  0
LINE
  8
2
  6
CONTINUOUS
 10
111.284870
 20
38.731905
 11
111.284870
 21
39.081905
  0
LINE
  8
2
  6
CONTINUOUS
 10
101.434870
 20
39.081905
 11
101.434870
 21
38.731905
  0
LINE
  8
2
  6
CONTINUOUS
 10
103.234870
 20
38.731905
 11
103.234870
 21
38.381905
  0
LINE
  8
2
  6
CONTINUOUS
 10
104.614870
 20
38.731905
 11
104.614870
 21
38.381905
  0
LINE
  8
2
  6
CONTINUOUS
 10
106.424870
 20
38.731905
 11
106.424870
 21
38.381905
  0
LINE
  8
2
  6
CONTINUOUS
 10
107.804870
 20
38.731905
 11
107.804870
 21
38.381905
  0
LINE
  8
2
  6
CONTINUOUS
 10
109.414870
 20
38.731905
 11
109.414870
 21
38.381905
  0
LINE
  8
2
  6
CONTINUOUS
 10
100.284870
 20
38.381905
 11
100.284870
 21
38.731905
  0
LINE
  8
2
  6
CONTINUOUS
 10
111.284870
 20
38.381905
 11
111.284870
 21
38.731905
  0
LINE
  8
2
  6
CONTINUOUS
 10
101.434870
 20
38.731905
 11
101.434870
 21
38.381905
  0
LINE
  8
2
  6
CONTINUOUS
 10
100.284870
 20
38.381905
 11
111.284870
 21
38.381905
  0
LINE
  8
2
  6
CONTINUOUS
 10
100.284870
 20
37.381905
 11
100.284870
 21
36.069405
  0
LINE
  8
2
  6
CONTINUOUS
 10
111.284870
 20
37.381905
 11
111.284870
 21
36.069405
  0
LINE
  8
2
  6
CONTINUOUS
 10
100.284870
 20
37.381905
 11
111.284870
 21
37.381905
  0
LINE
  8
2
  6
CONTINUOUS
 10
100.284870
 20
36.069405
 11
111.284870
 21
36.069405
  0
LINE
  8
2
  6
CONTINUOUS
 10
100.284870
 20
36.944405
 11
111.284870
 21
36.944405
  0
LINE
  8
2
  6
CONTINUOUS
 10
104.614870
 20
36.069405
 11
104.614870
 21
36.944405
  0
LINE
  8
2
  6
CONTINUOUS
 10
103.004870
 20
36.069405
 11
103.004870
 21
36.944405
  0
LINE
  8
2
  6
CONTINUOUS
 10
107.949870
 20
36.069405
 11
107.949870
 21
36.944405
  0
LINE
  8
2
  6
CONTINUOUS
 10
107.949870
 20
36.069405
 11
107.949870
 21
35.719405
  0
LINE
  8
2
  6
CONTINUOUS
 10
104.614870
 20
35.719405
 11
104.614870
 21
36.069405
  0
LINE
  8
2
  6
CONTINUOUS
 10
100.284870
 20
35.719405
 11
100.284870
 21
36.069405
  0
LINE
  8
2
  6
CONTINUOUS
 10
111.284870
 20
35.719405
 11
111.284870
 21
36.069405
  0
LINE
  8
2
  6
CONTINUOUS
 10
103.004870
 20
36.069405
 11
103.004870
 21
35.719405
  0
LINE
  8
2
  6
CONTINUOUS
 10
107.949870
 20
35.719405
 11
107.949870
 21
35.369404
  0
LINE
  8
2
  6
CONTINUOUS
 10
104.614870
 20
35.369404
 11
104.614870
 21
35.719405
  0
LINE
  8
2
  6
CONTINUOUS
 10
100.284870
 20
35.369404
 11
100.284870
 21
35.719405
  0
LINE
  8
2
  6
CONTINUOUS
 10
111.284870
 20
35.369404
 11
111.284870
 21
35.719405
  0
LINE
  8
2
  6
CONTINUOUS
 10
103.004870
 20
35.719405
 11
103.004870
 21
35.369405
  0
LINE
  8
2
  6
CONTINUOUS
 10
107.949870
 20
35.369404
 11
107.949870
 21
35.019404
  0
LINE
  8
2
  6
CONTINUOUS
 10
104.614870
 20
35.019404
 11
104.614870
 21
35.369404
  0
LINE
  8
2
  6
CONTINUOUS
 10
100.284870
 20
35.019404
 11
100.284870
 21
35.369404
  0
LINE
  8
2
  6
CONTINUOUS
 10
111.284870
 20
35.019404
 11
111.284870
 21
35.369404
  0
LINE
  8
2
  6
CONTINUOUS
 10
103.004870
 20
35.369404
 11
103.004870
 21
35.019404
  0
LINE
  8
2
  6
CONTINUOUS
 10
100.284870
 20
35.019404
 11
111.284870
 21
35.019404
  0
LINE
  8
2
  6
CONTINUOUS
 10
100.284870
 20
34.581904
 11
100.284870
 21
35.019404
  0
LINE
  8
2
  6
CONTINUOUS
 10
111.284870
 20
34.581904
 11
111.284870
 21
35.019404
  0
LINE
  8
2
  6
CONTINUOUS
 10
100.284870
 20
35.019404
 11
111.284870
 21
35.019404
  0
LINE
  8
2
  6
CONTINUOUS
 10
111.284870
 20
34.581904
 11
100.284870
 21
34.581904
  0
LINE
  8
2
  6
CONTINUOUS
 10
100.284870
 20
34.581904
 11
111.284870
 21
34.581904
  0
POLYLINE
  8
12
  6
CONTINUOUS
 66
     1
  0
VERTEX
  8
12
  6
CONTINUOUS
 10
-0.000072
 20
59.400002
  0
VERTEX
  8
12
  6
CONTINUOUS
 10
118.899928
 20
59.400002
  0
VERTEX
  8
12
  6
CONTINUOUS
 10
118.899928
 20
0.000000
  0
VERTEX
  8
12
  6
CONTINUOUS
 10
-0.000072
 20
0.000000
  0
VERTEX
  8
12
  6
CONTINUOUS
 10
-0.000072
 20
59.400002
  0
SEQEND
  8
12
  6
CONTINUOUS
  0
POLYLINE
  8
6
  6
CONTINUOUS
 66
     1
  0
VERTEX
  8
6
  6
CONTINUOUS
 10
2.500000
 20
58.400002
  0
VERTEX
  8
6
  6
CONTINUOUS
 10
117.899928
 20
58.400002
  0
VERTEX
  8
6
  6
CONTINUOUS
 10
117.899928
 20
1.000000
  0
VERTEX
  8
6
  6
CONTINUOUS
 10
2.500000
 20
1.000000
  0
VERTEX
  8
6
  6
CONTINUOUS
 10
2.500000
 20
58.400002
  0
SEQEND
  8
6
  6
CONTINUOUS
  0
LINE
  8
12
  6
CONTINUOUS
 10
100.400002
 20
0.000000
 11
100.400002
 21
1.000000
  0
LINE
  8
12
  6
CONTINUOUS
 10
81.900002
 20
0.000000
 11
81.900002
 21
1.000000
  0
LINE
  8
12
  6
CONTINUOUS
 10
63.400002
 20
0.000000
 11
63.400002
 21
1.000000
  0
LINE
  8
12
  6
CONTINUOUS
 10
44.900580
 20
0.000000
 11
44.900580
 21
1.000000
  0
LINE
  8
12
  6
CONTINUOUS
 10
32.950001
 20
0.000000
 11
32.950001
 21
1.000000
  0
LINE
  8
12
  6
CONTINUOUS
 10
20.999421
 20
0.000000
 11
20.999421
 21
1.000000
  0
LINE
  8
12
  6
CONTINUOUS
 10
81.900002
 20
58.400002
 11
81.900002
 21
59.400002
  0
LINE
  8
12
  6
CONTINUOUS
 10
63.400002
 20
58.400002
 11
63.400002
 21
59.400002
  0
LINE
  8
12
  6
CONTINUOUS
 10
44.900580
 20
58.400002
 11
44.900580
 21
59.400002
  0
LINE
  8
12
  6
CONTINUOUS
 10
32.950001
 20
58.400002
 11
32.950001
 21
59.400002
  0
LINE
  8
12
  6
CONTINUOUS
 10
20.999421
 20
58.400002
 11
20.999421
 21
59.400002
  0
LINE
  8
12
  6
CONTINUOUS
 10
100.400002
 20
58.400002
 11
100.400002
 21
59.400002
  0
LINE
  8
12
  6
CONTINUOUS
 10
117.899928
 20
29.700001
 11
118.900002
 21
29.700001
  0
LINE
  8
12
  6
CONTINUOUS
 10
-0.000072
 20
29.700001
 11
2.500000
 21
29.700001
  0
TEXT
  8
2
  6
CONTINUOUS
 10
13.169603
 20
50.304020
 40
0.350000
  1
ESCALA 1:50
  0
TEXT
  8
2
  6
CONTINUOUS
 10
46.673671
 20
21.104097
 40
0.200000
 50
90.000000
  1
Detalhe 1
  0
TEXT
  8
2
  6
CONTINUOUS
 10
53.653215
 20
20.555402
 40
0.200000
 50
90.000000
  1
Detalhe 1
  0
TEXT
  8
2
  6
CONTINUOUS
 10
54.999703
 20
29.377269
 40
0.200000
 50
90.000000
  1
Detalhe 1
  0
TEXT
  8
2
  6
CONTINUOUS
 10
86.733707
 20
25.589419
 40
0.400000
  1
DETALHE 1
  0
TEXT
  8
7
  6
CONTINUOUS
 10
13.180645
 20
50.962627
 40
0.800000
  1
TIPO - Armadura positiva vertical
  0
TEXT
  8
2
  6
CONTINUOUS
 10
38.103322
 20
22.574619
 40
0.200000
 50
90.000000
  1
Detalhe 1
  0
TEXT
  8
2
  6
CONTINUOUS
 10
61.922345
 20
23.975054
 40
0.200000
 50
90.000000
  1
Detalhe 1
  0
TEXT
  8
2
  6
CONTINUOUS
 10
68.349318
 20
22.563530
 40
0.200000
 50
90.000000
  1
47.5
  0
TEXT
  8
2
  6
CONTINUOUS
 10
30.306157
 20
22.563530
 40
0.200000
 50
90.000000
  1
47.5
  0
TEXT
  8
2
  6
CONTINUOUS
 10
30.601246
 20
19.342567
 40
0.200000
 50
90.000000
  1
Detalhe 1
  0
TEXT
  8
2
  6
CONTINUOUS
 10
69.696023
 20
19.143211
 40
0.200000
 50
90.000000
  1
Detalhe 1
  0
TEXT
  8
2
  6
CONTINUOUS
 10
31.493773
 20
38.054096
 40
0.200000
 50
90.000000
  1
13
  0
TEXT
  8
2
  6
CONTINUOUS
 10
31.493773
 20
38.654096
 40
0.200000
 50
90.000000
  1
N9
  0
TEXT
  8
2
  6
CONTINUOUS
 10
31.493773
 20
39.254096
 40
0.200000
 50
90.000000
  1
%%c 6.3
  0
TEXT
  8
2
  6
CONTINUOUS
 10
31.493773
 20
40.454096
 40
0.200000
 50
90.000000
  1
C/15
  0
TEXT
  8
2
  6
CONTINUOUS
 10
31.493773
 20
41.454096
 40
0.200000
 50
90.000000
  1
C=484
  0
TEXT
  8
2
  6
CONTINUOUS
 10
50.457725
 20
10.458530
 40
0.200000
 50
90.000000
  1
27
  0
TEXT
  8
2
  6
CONTINUOUS
 10
50.457725
 20
11.058530
 40
0.200000
 50
90.000000
  1
N31
  0
TEXT
  8
2
  6
CONTINUOUS
 10
50.457725
 20
11.858530
 40
0.200000
 50
90.000000
  1
%%c 8
  0
TEXT
  8
2
  6
CONTINUOUS
 10
50.457725
 20
12.658530
 40
0.200000
 50
90.000000
  1
C/20
  0
TEXT
  8
2
  6
CONTINUOUS
 10
50.457725
 20
13.658530
 40
0.200000
 50
90.000000
  1
C=542
  0
TEXT
  8
2
  6
CONTINUOUS
 10
33.256762
 20
12.778530
 40
0.200000
 50
90.000000
  1
594
  0
TEXT
  8
2
  6
CONTINUOUS
 10
33.016762
 20
19.118530
 40
0.200000
 50
90.000000
  1
4
  0
TEXT
  8
2
  6
CONTINUOUS
 10
32.776762
 20
18.518530
 40
0.200000
 50
90.000000
  1
30
  0
TEXT
  8
2
  6
CONTINUOUS
 10
32.856762
 20
10.878530
 40
0.200000
 50
90.000000
  1
9
  0
TEXT
  8
2
  6
CONTINUOUS
 10
32.856762
 20
11.278530
 40
0.200000
 50
90.000000
  1
N22
  0
TEXT
  8
2
  6
CONTINUOUS
 10
32.856762
 20
12.078530
 40
0.200000
 50
90.000000
  1
%%c 6.3
  0
TEXT
  8
2
  6
CONTINUOUS
 10
32.856762
 20
13.278530
 40
0.200000
 50
90.000000
  1
C/15
  0
TEXT
  8
2
  6
CONTINUOUS
 10
32.856762
 20
14.278530
 40
0.200000
 50
90.000000
  1
C=628
  0
TEXT
  8
2
  6
CONTINUOUS
 10
51.454834
 20
27.419876
 40
0.200000
 50
90.000000
  1
8
  0
TEXT
  8
2
  6
CONTINUOUS
 10
51.454834
 20
27.819876
 40
0.200000
 50
90.000000
  1
N12
  0
TEXT
  8
2
  6
CONTINUOUS
 10
51.454834
 20
28.619876
 40
0.200000
 50
90.000000
  1
%%c 6.3
  0
TEXT
  8
2
  6
CONTINUOUS
 10
51.454834
 20
29.819876
 40
0.200000
 50
90.000000
  1
C/15
  0
TEXT
  8
2
  6
CONTINUOUS
 10
51.454834
 20
30.819876
 40
0.200000
 50
90.000000
  1
C=315
  0
TEXT
  8
2
  6
CONTINUOUS
 10
10.772506
 20
42.068027
 40
0.200000
 50
90.000000
  1
7
  0
TEXT
  8
2
  6
CONTINUOUS
 10
10.772506
 20
42.468027
 40
0.200000
 50
90.000000
  1
N1
  0
TEXT
  8
2
  6
CONTINUOUS
 10
10.772506
 20
43.068027
 40
0.200000
 50
90.000000
  1
%%c 10
  0
TEXT
  8
2
  6
CONTINUOUS
 10
11.222107
 20
41.675689
 40
0.200000
 50
90.000000
  1
C/17.5
  0
TEXT
  8
2
  6
CONTINUOUS
 10
11.222107
 20
43.075689
 40
0.200000
 50
90.000000
  1
C=VAR
  0
TEXT
  8
2
  6
CONTINUOUS
 10
68.364753
 20
38.054096
 40
0.200000
 50
90.000000
  1
13
  0
TEXT
  8
2
  6
CONTINUOUS
 10
68.364753
 20
38.654096
 40
0.200000
 50
90.000000
  1
N9
  0
TEXT
  8
2
  6
CONTINUOUS
 10
68.364753
 20
39.254096
 40
0.200000
 50
90.000000
  1
%%c 6.3
  0
TEXT
  8
2
  6
CONTINUOUS
 10
68.364753
 20
40.454096
 40
0.200000
 50
90.000000
  1
C/15
  0
TEXT
  8
2
  6
CONTINUOUS
 10
68.364753
 20
41.454096
 40
0.200000
 50
90.000000
  1
C=484
  0
TEXT
  8
2
  6
CONTINUOUS
 10
74.675190
 20
12.034097
 40
0.200000
 50
90.000000
  1
18
  0
TEXT
  8
2
  6
CONTINUOUS
 10
74.675190
 20
12.634097
 40
0.200000
 50
90.000000
  1
N18
  0
TEXT
  8
2
  6
CONTINUOUS
 10
74.675190
 20
13.434097
 40
0.200000
 50
90.000000
  1
%%c 6.3
  0
TEXT
  8
2
  6
CONTINUOUS
 10
74.675190
 20
14.634097
 40
0.200000
 50
90.000000
  1
C/15
  0
TEXT
  8
2
  6
CONTINUOUS
 10
74.675190
 20
15.634097
 40
0.200000
 50
90.000000
  1
C=394
  0
TEXT
  8
2
  6
CONTINUOUS
 10
60.954681
 20
11.768530
 40
0.200000
 50
90.000000
  1
26
  0
TEXT
  8
2
  6
CONTINUOUS
 10
60.954681
 20
12.368530
 40
0.200000
 50
90.000000
  1
N25
  0
TEXT
  8
2
  6
CONTINUOUS
 10
60.954681
 20
13.168530
 40
0.200000
 50
90.000000
  1
%%c 8
  0
TEXT
  8
2
  6
CONTINUOUS
 10
60.954681
 20
13.968530
 40
0.200000
 50
90.000000
  1
C/20
  0
TEXT
  8
2
  6
CONTINUOUS
 10
60.954681
 20
14.968530
 40
0.200000
 50
90.000000
  1
C=673
  0
TEXT
  8
2
  6
CONTINUOUS
 10
67.896062
 20
12.778530
 40
0.200000
 50
90.000000
  1
594
  0
TEXT
  8
2
  6
CONTINUOUS
 10
67.656062
 20
19.118530
 40
0.200000
 50
90.000000
  1
4
  0
TEXT
  8
2
  6
CONTINUOUS
 10
67.416062
 20
18.518530
 40
0.200000
 50
90.000000
  1
30
  0
TEXT
  8
2
  6
CONTINUOUS
 10
67.496062
 20
10.878530
 40
0.200000
 50
90.000000
  1
9
  0
TEXT
  8
2
  6
CONTINUOUS
 10
67.496062
 20
11.278530
 40
0.200000
 50
90.000000
  1
N22
  0
TEXT
  8
2
  6
CONTINUOUS
 10
67.496062
 20
12.078530
 40
0.200000
 50
90.000000
  1
%%c 6.3
  0
TEXT
  8
2
  6
CONTINUOUS
 10
67.496062
 20
13.278530
 40
0.200000
 50
90.000000
  1
C/15
  0
TEXT
  8
2
  6
CONTINUOUS
 10
67.496062
 20
14.278530
 40
0.200000
 50
90.000000
  1
C=628
  0
TEXT
  8
2
  6
CONTINUOUS
 10
67.671093
 20
20.418530
 40
0.200000
 50
90.000000
  1
30
  0
TEXT
  8
2
  6
CONTINUOUS
 10
67.911093
 20
20.018530
 40
0.200000
 50
90.000000
  1
4
  0
TEXT
  8
2
  6
CONTINUOUS
 10
68.151093
 20
21.568530
 40
0.200000
 50
90.000000
  1
155
  0
TEXT
  8
2
  6
CONTINUOUS
 10
67.261734
 20
21.143221
 40
0.200000
 50
90.000000
  1
9
  0
TEXT
  8
2
  6
CONTINUOUS
 10
67.261734
 20
21.543221
 40
0.200000
 50
90.000000
  1
N21
  0
TEXT
  8
2
  6
CONTINUOUS
 10
67.261734
 20
22.343221
 40
0.200000
 50
90.000000
  1
%%c 6.3
  0
TEXT
  8
2
  6
CONTINUOUS
 10
67.709511
 20
21.076284
 40
0.200000
 50
90.000000
  1
C/15
  0
TEXT
  8
2
  6
CONTINUOUS
 10
67.709511
 20
22.076284
 40
0.200000
 50
90.000000
  1
C=189
  0
TEXT
  8
2
  6
CONTINUOUS
 10
87.597795
 20
40.390580
 40
0.200000
 50
90.000000
  1
7
  0
TEXT
  8
2
  6
CONTINUOUS
 10
87.597795
 20
40.790580
 40
0.200000
 50
90.000000
  1
N1
  0
TEXT
  8
2
  6
CONTINUOUS
 10
87.597795
 20
41.390580
 40
0.200000
 50
90.000000
  1
%%c 10
  0
TEXT
  8
2
  6
CONTINUOUS
 10
88.065680
 20
40.142016
 40
0.200000
 50
90.000000
  1
C/17.5
  0
TEXT
  8
2
  6
CONTINUOUS
 10
88.065680
 20
41.542016
 40
0.200000
 50
90.000000
  1
C=VAR
  0
TEXT
  8
2
  6
CONTINUOUS
 10
32.775741
 20
20.418530
 40
0.200000
 50
90.000000
  1
30
  0
TEXT
  8
2
  6
CONTINUOUS
 10
33.015741
 20
20.018530
 40
0.200000
 50
90.000000
  1
4
  0
TEXT
  8
2
  6
CONTINUOUS
 10
33.255741
 20
21.568530
 40
0.200000
 50
90.000000
  1
155
  0
TEXT
  8
2
  6
CONTINUOUS
 10
32.388624
 20
21.164744
 40
0.200000
 50
90.000000
  1
9
  0
TEXT
  8
2
  6
CONTINUOUS
 10
32.388624
 20
21.564744
 40
0.200000
 50
90.000000
  1
N21
  0
TEXT
  8
2
  6
CONTINUOUS
 10
32.388624
 20
22.364744
 40
0.200000
 50
90.000000
  1
%%c 6.3
  0
TEXT
  8
2
  6
CONTINUOUS
 10
32.808787
 20
21.117924
 40
0.200000
 50
90.000000
  1
C/15
  0
TEXT
  8
2
  6
CONTINUOUS
 10
32.808787
 20
22.117924
 40
0.200000
 50
90.000000
  1
C=189
  0
TEXT
  8
2
  6
CONTINUOUS
 10
24.820710
 20
12.034097
 40
0.200000
 50
90.000000
  1
18
  0
TEXT
  8
2
  6
CONTINUOUS
 10
24.820710
 20
12.634097
 40
0.200000
 50
90.000000
  1
N18
  0
TEXT
  8
2
  6
CONTINUOUS
 10
24.820710
 20
13.434097
 40
0.200000
 50
90.000000
  1
%%c 6.3
  0
TEXT
  8
2
  6
CONTINUOUS
 10
24.820710
 20
14.634097
 40
0.200000
 50
90.000000
  1
C/15
  0
TEXT
  8
2
  6
CONTINUOUS
 10
24.820710
 20
15.634097
 40
0.200000
 50
90.000000
  1
C=394
  0
TEXT
  8
2
  6
CONTINUOUS
 10
50.402198
 20
20.618530
 40
0.200000
 50
90.000000
  1
30
  0
TEXT
  8
2
  6
CONTINUOUS
 10
50.642198
 20
20.218530
 40
0.200000
 50
90.000000
  1
4
  0
TEXT
  8
2
  6
CONTINUOUS
 10
50.882198
 20
23.188530
 40
0.200000
 50
90.000000
  1
297
  0
TEXT
  8
2
  6
CONTINUOUS
 10
50.435989
 20
21.679414
 40
0.200000
 50
90.000000
  1
13
  0
TEXT
  8
2
  6
CONTINUOUS
 10
50.435989
 20
22.279414
 40
0.200000
 50
90.000000
  1
N30
  0
TEXT
  8
2
  6
CONTINUOUS
 10
50.435989
 20
23.079414
 40
0.200000
 50
90.000000
  1
%%c 8
  0
TEXT
  8
2
  6
CONTINUOUS
 10
50.435989
 20
23.879414
 40
0.200000
 50
90.000000
  1
C/20
  0
TEXT
  8
2
  6
CONTINUOUS
 10
50.435989
 20
24.879414
 40
0.200000
 50
90.000000
  1
C=331
  0
TEXT
  8
2
  6
CONTINUOUS
 10
50.260855
 20
18.372278
 40
0.200000
 50
90.000000
  1
76
  0
TEXT
  8
2
  6
CONTINUOUS
 10
50.009353
 20
19.318530
 40
0.200000
 50
90.000000
  1
4
  0
TEXT
  8
2
  6
CONTINUOUS
 10
49.769353
 20
18.718530
 40
0.200000
 50
90.000000
  1
30
  0
TEXT
  8
2
  6
CONTINUOUS
 10
48.855420
 20
15.310054
 40
0.200000
 50
90.000000
  1
13
  0
TEXT
  8
2
  6
CONTINUOUS
 10
48.855420
 20
15.910054
 40
0.200000
 50
90.000000
  1
N29
  0
TEXT
  8
2
  6
CONTINUOUS
 10
48.855420
 20
16.710054
 40
0.200000
 50
90.000000
  1
%%c 8
  0
TEXT
  8
2
  6
CONTINUOUS
 10
49.322729
 20
15.335644
 40
0.200000
 50
90.000000
  1
C/20
  0
TEXT
  8
2
  6
CONTINUOUS
 10
49.322729
 20
16.335644
 40
0.200000
 50
90.000000
  1
C=110
  0
TEXT
  8
2
  6
CONTINUOUS
 10
47.333360
 20
18.280596
 40
0.200000
 50
90.000000
  1
2
  0
TEXT
  8
2
  6
CONTINUOUS
 10
47.333360
 20
18.680596
 40
0.200000
 50
90.000000
  1
N28
  0
TEXT
  8
2
  6
CONTINUOUS
 10
47.333360
 20
19.598344
 40
0.200000
 50
90.000000
  1
%%c 8
  0
TEXT
  8
2
  6
CONTINUOUS
 10
47.333360
 20
20.398344
 40
0.200000
 50
90.000000
  1
C=145
  0
TEXT
  8
2
  6
CONTINUOUS
 10
53.173278
 20
18.312448
 40
0.200000
 50
90.000000
  1
2
  0
TEXT
  8
2
  6
CONTINUOUS
 10
53.173278
 20
18.712448
 40
0.200000
 50
90.000000
  1
N28
  0
TEXT
  8
2
  6
CONTINUOUS
 10
53.162278
 20
19.660007
 40
0.200000
 50
90.000000
  1
%%c 8
  0
TEXT
  8
2
  6
CONTINUOUS
 10
53.162278
 20
20.460007
 40
0.200000
 50
90.000000
  1
C=145
  0
TEXT
  8
2
  6
CONTINUOUS
 10
54.614250
 20
19.967180
 40
0.200000
 50
90.000000
  1
8
  0
TEXT
  8
2
  6
CONTINUOUS
 10
54.614250
 20
20.367180
 40
0.200000
 50
90.000000
  1
N27
  0
TEXT
  8
2
  6
CONTINUOUS
 10
54.614250
 20
21.167180
 40
0.200000
 50
90.000000
  1
%%c 8
  0
TEXT
  8
2
  6
CONTINUOUS
 10
54.614250
 20
21.967180
 40
0.200000
 50
90.000000
  1
C/17.5
  0
TEXT
  8
2
  6
CONTINUOUS
 10
54.614250
 20
23.367180
 40
0.200000
 50
90.000000
  1
C=438
  0
TEXT
  8
2
  6
CONTINUOUS
 10
45.743493
 20
19.878530
 40
0.200000
 50
90.000000
  1
8
  0
TEXT
  8
2
  6
CONTINUOUS
 10
45.743493
 20
20.278530
 40
0.200000
 50
90.000000
  1
N27
  0
TEXT
  8
2
  6
CONTINUOUS
 10
45.743493
 20
21.078530
 40
0.200000
 50
90.000000
  1
%%c 8
  0
TEXT
  8
2
  6
CONTINUOUS
 10
45.743493
 20
21.878530
 40
0.200000
 50
90.000000
  1
C/17.5
  0
TEXT
  8
2
  6
CONTINUOUS
 10
45.743493
 20
23.278530
 40
0.200000
 50
90.000000
  1
C=438
  0
TEXT
  8
2
  6
CONTINUOUS
 10
70.307555
 20
13.078530
 40
0.200000
 50
90.000000
  1
9
  0
TEXT
  8
2
  6
CONTINUOUS
 10
70.307555
 20
13.478530
 40
0.200000
 50
90.000000
  1
N20
  0
TEXT
  8
2
  6
CONTINUOUS
 10
70.307555
 20
14.278530
 40
0.200000
 50
90.000000
  1
%%c 6.3
  0
TEXT
  8
2
  6
CONTINUOUS
 10
70.307555
 20
15.478530
 40
0.200000
 50
90.000000
  1
C/15
  0
TEXT
  8
2
  6
CONTINUOUS
 10
70.307555
 20
16.478530
 40
0.200000
 50
90.000000
  1
C=814
  0
TEXT
  8
2
  6
CONTINUOUS
 10
29.744049
 20
13.078530
 40
0.200000
 50
90.000000
  1
9
  0
TEXT
  8
2
  6
CONTINUOUS
 10
29.744049
 20
13.478530
 40
0.200000
 50
90.000000
  1
N20
  0
TEXT
  8
2
  6
CONTINUOUS
 10
29.744049
 20
14.278530
 40
0.200000
 50
90.000000
  1
%%c 6.3
  0
TEXT
  8
2
  6
CONTINUOUS
 10
29.744049
 20
15.478530
 40
0.200000
 50
90.000000
  1
C/15
  0
TEXT
  8
2
  6
CONTINUOUS
 10
29.744049
 20
16.478530
 40
0.200000
 50
90.000000
  1
C=814
  0
TEXT
  8
2
  6
CONTINUOUS
 10
54.144166
 20
26.691284
 40
0.200000
 50
90.000000
  1
10
  0
TEXT
  8
2
  6
CONTINUOUS
 10
54.144166
 20
27.291284
 40
0.200000
 50
90.000000
  1
N13
  0
TEXT
  8
2
  6
CONTINUOUS
 10
54.144166
 20
28.091284
 40
0.200000
 50
90.000000
  1
%%c 6.3
  0
TEXT
  8
2
  6
CONTINUOUS
 10
54.144166
 20
29.291284
 40
0.200000
 50
90.000000
  1
C/15
  0
TEXT
  8
2
  6
CONTINUOUS
 10
54.144166
 20
30.291284
 40
0.200000
 50
90.000000
  1
C=275
  0
TEXT
  8
2
  6
CONTINUOUS
 10
31.313774
 20
18.175451
 40
0.200000
 50
90.000000
  1
2
  0
TEXT
  8
2
  6
CONTINUOUS
 10
31.313774
 20
18.575451
 40
0.200000
 50
90.000000
  1
N14
  0
TEXT
  8
2
  6
CONTINUOUS
 10
31.313774
 20
19.375451
 40
0.200000
 50
90.000000
  1
%%c 6.3
  0
TEXT
  8
2
  6
CONTINUOUS
 10
31.313774
 20
20.575451
 40
0.200000
 50
90.000000
  1
C=150
  0
TEXT
  8
2
  6
CONTINUOUS
 10
69.178052
 20
18.018530
 40
0.200000
 50
90.000000
  1
2
  0
TEXT
  8
2
  6
CONTINUOUS
 10
69.178052
 20
18.418530
 40
0.200000
 50
90.000000
  1
N14
  0
TEXT
  8
2
  6
CONTINUOUS
 10
69.178052
 20
19.218530
 40
0.200000
 50
90.000000
  1
%%c 6.3
  0
TEXT
  8
2
  6
CONTINUOUS
 10
69.178052
 20
20.418530
 40
0.200000
 50
90.000000
  1
C=150
  0
TEXT
  8
2
  6
CONTINUOUS
 10
55.665005
 20
28.345967
 40
0.200000
 50
90.000000
  1
2
  0
TEXT
  8
2
  6
CONTINUOUS
 10
55.665005
 20
28.745967
 40
0.200000
 50
90.000000
  1
N14
  0
TEXT
  8
2
  6
CONTINUOUS
 10
55.665005
 20
29.545967
 40
0.200000
 50
90.000000
  1
%%c 6.3
  0
TEXT
  8
2
  6
CONTINUOUS
 10
55.665005
 20
30.745967
 40
0.200000
 50
90.000000
  1
C=150
  0
TEXT
  8
2
  6
CONTINUOUS
 10
58.002384
 20
27.468530
 40
0.200000
 50
90.000000
  1
165
  0
TEXT
  8
2
  6
CONTINUOUS
 10
57.762384
 20
29.518530
 40
0.200000
 50
90.000000
  1
4
  0
TEXT
  8
2
  6
CONTINUOUS
 10
57.522384
 20
28.868530
 40
0.200000
 50
90.000000
  1
30
  0
TEXT
  8
2
  6
CONTINUOUS
 10
57.123365
 20
26.561115
 40
0.200000
 50
90.000000
  1
9
  0
TEXT
  8
2
  6
CONTINUOUS
 10
57.123365
 20
26.961115
 40
0.200000
 50
90.000000
  1
N15
  0
TEXT
  8
2
  6
CONTINUOUS
 10
57.123365
 20
27.761115
 40
0.200000
 50
90.000000
  1
%%c 6.3
  0
TEXT
  8
2
  6
CONTINUOUS
 10
57.513755
 20
26.664234
 40
0.200000
 50
90.000000
  1
C/15
  0
TEXT
  8
2
  6
CONTINUOUS
 10
57.513755
 20
27.664234
 40
0.200000
 50
90.000000
  1
C=199
  0
TEXT
  8
2
  6
CONTINUOUS
 10
26.892614
 20
26.681577
 40
0.200000
 50
90.000000
  1
8
  0
TEXT
  8
2
  6
CONTINUOUS
 10
26.892614
 20
27.081577
 40
0.200000
 50
90.000000
  1
N7
  0
TEXT
  8
2
  6
CONTINUOUS
 10
26.892614
 20
27.681577
 40
0.200000
 50
90.000000
  1
%%c 10
  0
TEXT
  8
2
  6
CONTINUOUS
 10
26.892614
 20
28.681577
 40
0.200000
 50
90.000000
  1
C/15
  0
TEXT
  8
2
  6
CONTINUOUS
 10
26.892614
 20
29.681577
 40
0.200000
 50
90.000000
  1
C=VAR
  0
TEXT
  8
2
  6
CONTINUOUS
 10
21.128806
 20
26.744098
 40
0.200000
 50
90.000000
  1
23
  0
TEXT
  8
2
  6
CONTINUOUS
 10
21.128806
 20
27.344098
 40
0.200000
 50
90.000000
  1
N4
  0
TEXT
  8
2
  6
CONTINUOUS
 10
21.128806
 20
27.944098
 40
0.200000
 50
90.000000
  1
%%c 10
  0
TEXT
  8
2
  6
CONTINUOUS
 10
21.128806
 20
28.944098
 40
0.200000
 50
90.000000
  1
C/15
  0
TEXT
  8
2
  6
CONTINUOUS
 10
21.128806
 20
29.944098
 40
0.200000
 50
90.000000
  1
C=443
  0
TEXT
  8
2
  6
CONTINUOUS
 10
35.547935
 20
25.005088
 40
0.200000
 50
90.000000
  1
9
  0
TEXT
  8
2
  6
CONTINUOUS
 10
35.547935
 20
25.405088
 40
0.200000
 50
90.000000
  1
N11
  0
TEXT
  8
2
  6
CONTINUOUS
 10
35.547935
 20
26.205088
 40
0.200000
 50
90.000000
  1
%%c 6.3
  0
TEXT
  8
2
  6
CONTINUOUS
 10
35.547935
 20
27.405088
 40
0.200000
 50
90.000000
  1
C/15
  0
TEXT
  8
2
  6
CONTINUOUS
 10
35.547935
 20
28.405088
 40
0.200000
 50
90.000000
  1
C=648
  0
TEXT
  8
2
  6
CONTINUOUS
 10
40.916042
 20
22.018530
 40
0.200000
 50
90.000000
  1
30
  0
TEXT
  8
2
  6
CONTINUOUS
 10
41.166042
 20
21.618530
 40
0.200000
 50
90.000000
  1
5
  0
TEXT
  8
2
  6
CONTINUOUS
 10
41.416042
 20
23.888530
 40
0.200000
 50
90.000000
  1
227
  0
TEXT
  8
2
  6
CONTINUOUS
 10
40.989377
 20
22.717293
 40
0.200000
 50
90.000000
  1
19
  0
TEXT
  8
2
  6
CONTINUOUS
 10
40.989377
 20
23.317293
 40
0.200000
 50
90.000000
  1
N26
  0
TEXT
  8
2
  6
CONTINUOUS
 10
40.989377
 20
24.117293
 40
0.200000
 50
90.000000
  1
%%c 6.3
  0
TEXT
  8
2
  6
CONTINUOUS
 10
40.989377
 20
25.317293
 40
0.200000
 50
90.000000
  1
C/15
  0
TEXT
  8
2
  6
CONTINUOUS
 10
40.999429
 20
26.307824
 40
0.200000
 50
90.000000
  1
C=262
  0
TEXT
  8
2
  6
CONTINUOUS
 10
37.280492
 20
21.441696
 40
0.200000
 50
90.000000
  1
7
  0
TEXT
  8
2
  6
CONTINUOUS
 10
37.280492
 20
21.841696
 40
0.200000
 50
90.000000
  1
N23
  0
TEXT
  8
2
  6
CONTINUOUS
 10
37.280492
 20
22.641696
 40
0.200000
 50
90.000000
  1
%%c 6.3
  0
TEXT
  8
2
  6
CONTINUOUS
 10
37.280492
 20
23.841696
 40
0.200000
 50
90.000000
  1
C/15
  0
TEXT
  8
2
  6
CONTINUOUS
 10
37.280492
 20
24.841696
 40
0.200000
 50
90.000000
  1
C=307
  0
TEXT
  8
2
  6
CONTINUOUS
 10
38.752580
 20
20.056479
 40
0.200000
 50
90.000000
  1
2
  0
TEXT
  8
2
  6
CONTINUOUS
 10
38.752580
 20
20.456479
 40
0.200000
 50
90.000000
  1
N24
  0
TEXT
  8
2
  6
CONTINUOUS
 10
38.739739
 20
21.383760
 40
0.200000
 50
90.000000
  1
%%c 6.3
  0
TEXT
  8
2
  6
CONTINUOUS
 10
38.739739
 20
22.583760
 40
0.200000
 50
90.000000
  1
C=120
  0
TEXT
  8
2
  6
CONTINUOUS
 10
71.793186
 20
26.105192
 40
0.200000
 50
90.000000
  1
8
  0
TEXT
  8
2
  6
CONTINUOUS
 10
71.793186
 20
26.505192
 40
0.200000
 50
90.000000
  1
N16
  0
TEXT
  8
2
  6
CONTINUOUS
 10
71.793186
 20
27.305192
 40
0.200000
 50
90.000000
  1
%%c 10
  0
TEXT
  8
2
  6
CONTINUOUS
 10
71.793186
 20
28.305192
 40
0.200000
 50
90.000000
  1
C/15
  0
TEXT
  8
2
  6
CONTINUOUS
 10
71.793186
 20
29.305192
 40
0.200000
 50
90.000000
  1
C=VAR
  0
TEXT
  8
2
  6
CONTINUOUS
 10
75.079717
 20
26.744098
 40
0.200000
 50
90.000000
  1
23
  0
TEXT
  8
2
  6
CONTINUOUS
 10
75.079717
 20
27.344098
 40
0.200000
 50
90.000000
  1
N4
  0
TEXT
  8
2
  6
CONTINUOUS
 10
75.079717
 20
27.944098
 40
0.200000
 50
90.000000
  1
%%c 10
  0
TEXT
  8
2
  6
CONTINUOUS
 10
75.079717
 20
28.944098
 40
0.200000
 50
90.000000
  1
C/15
  0
TEXT
  8
2
  6
CONTINUOUS
 10
75.079717
 20
29.944098
 40
0.200000
 50
90.000000
  1
C=443
  0
TEXT
  8
2
  6
CONTINUOUS
 10
76.699608
 20
18.976996
 40
0.200000
 50
90.000000
  1
24
  0
TEXT
  8
2
  6
CONTINUOUS
 10
76.699608
 20
19.576996
 40
0.200000
 50
90.000000
  1
N17
  0
TEXT
  8
2
  6
CONTINUOUS
 10
76.699608
 20
20.376996
 40
0.200000
 50
90.000000
  1
%%c 6.3
  0
TEXT
  8
2
  6
CONTINUOUS
 10
76.699608
 20
21.576996
 40
0.200000
 50
90.000000
  1
C/15
  0
TEXT
  8
2
  6
CONTINUOUS
 10
76.699608
 20
22.576996
 40
0.200000
 50
90.000000
  1
C=335
  0
TEXT
  8
2
  6
CONTINUOUS
 10
73.222274
 20
19.085224
 40
0.200000
 50
90.000000
  1
7
  0
TEXT
  8
2
  6
CONTINUOUS
 10
73.222274
 20
19.485224
 40
0.200000
 50
90.000000
  1
N32
  0
TEXT
  8
2
  6
CONTINUOUS
 10
73.222274
 20
20.285224
 40
0.200000
 50
90.000000
  1
%%c 6.3
  0
TEXT
  8
2
  6
CONTINUOUS
 10
73.222274
 20
21.485224
 40
0.200000
 50
90.000000
  1
C/15
  0
TEXT
  8
2
  6
CONTINUOUS
 10
73.222274
 20
22.485224
 40
0.200000
 50
90.000000
  1
C=VAR
  0
TEXT
  8
2
  6
CONTINUOUS
 10
20.588226
 20
19.044098
 40
0.200000
 50
90.000000
  1
24
  0
TEXT
  8
2
  6
CONTINUOUS
 10
20.572740
 20
19.744830
 40
0.200000
 50
90.000000
  1
N17
  0
TEXT
  8
2
  6
CONTINUOUS
 10
20.572740
 20
20.544830
 40
0.200000
 50
90.000000
  1
%%c 6.3
  0
TEXT
  8
2
  6
CONTINUOUS
 10
20.572740
 20
21.744830
 40
0.200000
 50
90.000000
  1
C/15
  0
TEXT
  8
2
  6
CONTINUOUS
 10
20.572740
 20
22.744830
 40
0.200000
 50
90.000000
  1
C=335
  0
TEXT
  8
2
  6
CONTINUOUS
 10
26.829184
 20
18.975353
 40
0.200000
 50
90.000000
  1
7
  0
TEXT
  8
2
  6
CONTINUOUS
 10
26.807407
 20
19.579680
 40
0.200000
 50
90.000000
  1
N19
  0
TEXT
  8
2
  6
CONTINUOUS
 10
26.807407
 20
20.379680
 40
0.200000
 50
90.000000
  1
%%c 6.3
  0
TEXT
  8
2
  6
CONTINUOUS
 10
26.807407
 20
21.579680
 40
0.200000
 50
90.000000
  1
C/15
  0
TEXT
  8
2
  6
CONTINUOUS
 10
26.807407
 20
22.579680
 40
0.200000
 50
90.000000
  1
C=VAR
  0
TEXT
  8
2
  6
CONTINUOUS
 10
32.829147
 20
31.994424
 40
0.200000
 50
90.000000
  1
23
  0
TEXT
  8
2
  6
CONTINUOUS
 10
32.829147
 20
32.594424
 40
0.200000
 50
90.000000
  1
N10
  0
TEXT
  8
2
  6
CONTINUOUS
 10
32.829147
 20
33.394424
 40
0.200000
 50
90.000000
  1
%%c 6.3
  0
TEXT
  8
2
  6
CONTINUOUS
 10
32.829147
 20
34.594424
 40
0.200000
 50
90.000000
  1
C/15
  0
TEXT
  8
2
  6
CONTINUOUS
 10
32.829147
 20
35.594424
 40
0.200000
 50
90.000000
  1
C=135
  0
TEXT
  8
2
  6
CONTINUOUS
 10
64.923101
 20
31.981548
 40
0.200000
 50
90.000000
  1
23
  0
TEXT
  8
2
  6
CONTINUOUS
 10
64.923101
 20
32.581548
 40
0.200000
 50
90.000000
  1
N10
  0
TEXT
  8
2
  6
CONTINUOUS
 10
64.923101
 20
33.381548
 40
0.200000
 50
90.000000
  1
%%c 6.3
  0
TEXT
  8
2
  6
CONTINUOUS
 10
64.923101
 20
34.581548
 40
0.200000
 50
90.000000
  1
C/15
  0
TEXT
  8
2
  6
CONTINUOUS
 10
64.923101
 20
35.581548
 40
0.200000
 50
90.000000
  1
C=135
  0
TEXT
  8
2
  6
CONTINUOUS
 10
39.965776
 20
11.768530
 40
0.200000
 50
90.000000
  1
26
  0
TEXT
  8
2
  6
CONTINUOUS
 10
39.965776
 20
12.368530
 40
0.200000
 50
90.000000
  1
N25
  0
TEXT
  8
2
  6
CONTINUOUS
 10
39.965776
 20
13.168530
 40
0.200000
 50
90.000000
  1
%%c 8
  0
TEXT
  8
2
  6
CONTINUOUS
 10
39.965776
 20
13.968530
 40
0.200000
 50
90.000000
  1
C/20
  0
TEXT
  8
2
  6
CONTINUOUS
 10
39.965776
 20
14.968530
 40
0.200000
 50
90.000000
  1
C=673
  0
TEXT
  8
2
  6
CONTINUOUS
 10
64.019046
 20
24.596314
 40
0.200000
 50
90.000000
  1
9
  0
TEXT
  8
2
  6
CONTINUOUS
 10
64.019046
 20
24.996314
 40
0.200000
 50
90.000000
  1
N11
  0
TEXT
  8
2
  6
CONTINUOUS
 10
64.019046
 20
25.796314
 40
0.200000
 50
90.000000
  1
%%c 6.3
  0
TEXT
  8
2
  6
CONTINUOUS
 10
64.019046
 20
26.996314
 40
0.200000
 50
90.000000
  1
C/15
  0
TEXT
  8
2
  6
CONTINUOUS
 10
64.019046
 20
27.996314
 40
0.200000
 50
90.000000
  1
C=648
  0
TEXT
  8
2
  6
CONTINUOUS
 10
61.795220
 20
19.880894
 40
0.200000
 50
90.000000
  1
2
  0
TEXT
  8
2
  6
CONTINUOUS
 10
61.795220
 20
20.280894
 40
0.200000
 50
90.000000
  1
N24
  0
TEXT
  8
2
  6
CONTINUOUS
 10
61.790572
 20
21.177836
 40
0.200000
 50
90.000000
  1
%%c 6.3
  0
TEXT
  8
2
  6
CONTINUOUS
 10
61.790572
 20
22.377836
 40
0.200000
 50
90.000000
  1
C=120
  0
TEXT
  8
2
  6
CONTINUOUS
 10
62.805916
 20
21.294852
 40
0.200000
 50
90.000000
  1
7
  0
TEXT
  8
2
  6
CONTINUOUS
 10
62.805916
 20
21.694852
 40
0.200000
 50
90.000000
  1
N23
  0
TEXT
  8
2
  6
CONTINUOUS
 10
62.805916
 20
22.494852
 40
0.200000
 50
90.000000
  1
%%c 6.3
  0
TEXT
  8
2
  6
CONTINUOUS
 10
62.805916
 20
23.694852
 40
0.200000
 50
90.000000
  1
C/15
  0
TEXT
  8
2
  6
CONTINUOUS
 10
62.805916
 20
24.694852
 40
0.200000
 50
90.000000
  1
C=307
  0
TEXT
  8
2
  6
CONTINUOUS
 10
59.543939
 20
22.018530
 40
0.200000
 50
90.000000
  1
30
  0
TEXT
  8
2
  6
CONTINUOUS
 10
59.793939
 20
21.618530
 40
0.200000
 50
90.000000
  1
5
  0
TEXT
  8
2
  6
CONTINUOUS
 10
60.043939
 20
23.888530
 40
0.200000
 50
90.000000
  1
227
  0
TEXT
  8
2
  6
CONTINUOUS
 10
59.617274
 20
22.717293
 40
0.200000
 50
90.000000
  1
19
  0
TEXT
  8
2
  6
CONTINUOUS
 10
59.617274
 20
23.317293
 40
0.200000
 50
90.000000
  1
N26
  0
TEXT
  8
2
  6
CONTINUOUS
 10
59.617274
 20
24.117293
 40
0.200000
 50
90.000000
  1
%%c 6.3
  0
TEXT
  8
2
  6
CONTINUOUS
 10
59.617274
 20
25.317293
 40
0.200000
 50
90.000000
  1
C/15
  0
TEXT
  8
2
  6
CONTINUOUS
 10
59.627326
 20
26.307824
 40
0.200000
 50
90.000000
  1
C=262
  0
TEXT
  8
2
  6
CONTINUOUS
 10
18.159430
 20
33.834096
 40
0.200000
 50
90.000000
  1
27
  0
TEXT
  8
2
  6
CONTINUOUS
 10
18.159430
 20
34.434096
 40
0.200000
 50
90.000000
  1
N3
  0
TEXT
  8
2
  6
CONTINUOUS
 10
18.159430
 20
35.034096
 40
0.200000
 50
90.000000
  1
%%c 6.3
  0
TEXT
  8
2
  6
CONTINUOUS
 10
18.159430
 20
36.234096
 40
0.200000
 50
90.000000
  1
C/15
  0
TEXT
  8
2
  6
CONTINUOUS
 10
18.159430
 20
37.234096
 40
0.200000
 50
90.000000
  1
C=304
  0
TEXT
  8
2
  6
CONTINUOUS
 10
25.908161
 20
36.844096
 40
0.200000
 50
90.000000
  1
21
  0
TEXT
  8
2
  6
CONTINUOUS
 10
25.908161
 20
37.444096
 40
0.200000
 50
90.000000
  1
N6
  0
TEXT
  8
2
  6
CONTINUOUS
 10
25.908161
 20
38.044096
 40
0.200000
 50
90.000000
  1
%%c 6.3
  0
TEXT
  8
2
  6
CONTINUOUS
 10
25.908161
 20
39.244096
 40
0.200000
 50
90.000000
  1
C/15
  0
TEXT
  8
2
  6
CONTINUOUS
 10
25.908161
 20
40.244096
 40
0.200000
 50
90.000000
  1
C=605
  0
TEXT
  8
2
  6
CONTINUOUS
 10
23.254662
 20
34.445585
 40
0.200000
 50
90.000000
  1
3
  0
TEXT
  8
2
  6
CONTINUOUS
 10
23.254662
 20
34.845585
 40
0.200000
 50
90.000000
  1
N5
  0
TEXT
  8
2
  6
CONTINUOUS
 10
23.254662
 20
35.445585
 40
0.200000
 50
90.000000
  1
%%c 6.3
  0
TEXT
  8
2
  6
CONTINUOUS
 10
23.254662
 20
36.645585
 40
0.200000
 50
90.000000
  1
C/15
  0
TEXT
  8
2
  6
CONTINUOUS
 10
23.254662
 20
37.645585
 40
0.200000
 50
90.000000
  1
C=VAR
  0
TEXT
  8
2
  6
CONTINUOUS
 10
73.940953
 20
36.599774
 40
0.200000
 50
90.000000
  1
21
  0
TEXT
  8
2
  6
CONTINUOUS
 10
73.940953
 20
37.199774
 40
0.200000
 50
90.000000
  1
N6
  0
TEXT
  8
2
  6
CONTINUOUS
 10
73.940953
 20
37.799774
 40
0.200000
 50
90.000000
  1
%%c 6.3
  0
TEXT
  8
2
  6
CONTINUOUS
 10
73.940953
 20
38.999774
 40
0.200000
 50
90.000000
  1
C/15
  0
TEXT
  8
2
  6
CONTINUOUS
 10
73.940953
 20
39.999774
 40
0.200000
 50
90.000000
  1
C=605
  0
TEXT
  8
2
  6
CONTINUOUS
 10
79.316391
 20
33.834096
 40
0.200000
 50
90.000000
  1
27
  0
TEXT
  8
2
  6
CONTINUOUS
 10
79.316391
 20
34.434096
 40
0.200000
 50
90.000000
  1
N3
  0
TEXT
  8
2
  6
CONTINUOUS
 10
79.316391
 20
35.034096
 40
0.200000
 50
90.000000
  1
%%c 6.3
  0
TEXT
  8
2
  6
CONTINUOUS
 10
79.316391
 20
36.234096
 40
0.200000
 50
90.000000
  1
C/15
  0
TEXT
  8
2
  6
CONTINUOUS
 10
79.316391
 20
37.234096
 40
0.200000
 50
90.000000
  1
C=304
  0
TEXT
  8
2
  6
CONTINUOUS
 10
76.909855
 20
34.935511
 40
0.200000
 50
90.000000
  1
3
  0
TEXT
  8
2
  6
CONTINUOUS
 10
76.909855
 20
35.335511
 40
0.200000
 50
90.000000
  1
N5
  0
TEXT
  8
2
  6
CONTINUOUS
 10
76.909855
 20
35.935511
 40
0.200000
 50
90.000000
  1
%%c 6.3
  0
TEXT
  8
2
  6
CONTINUOUS
 10
76.909855
 20
37.135511
 40
0.200000
 50
90.000000
  1
C/15
  0
TEXT
  8
2
  6
CONTINUOUS
 10
76.909855
 20
38.135511
 40
0.200000
 50
90.000000
  1
C=VAR
  0
TEXT
  8
2
  6
CONTINUOUS
 10
16.923612
 20
40.544096
 40
0.200000
 50
90.000000
  1
28
  0
TEXT
  8
2
  6
CONTINUOUS
 10
16.923612
 20
41.144096
 40
0.200000
 50
90.000000
  1
N2
  0
TEXT
  8
2
  6
CONTINUOUS
 10
16.923612
 20
41.744096
 40
0.200000
 50
90.000000
  1
%%c 10
  0
TEXT
  8
2
  6
CONTINUOUS
 10
16.923612
 20
42.744096
 40
0.200000
 50
90.000000
  1
C/17.5
  0
TEXT
  8
2
  6
CONTINUOUS
 10
16.923612
 20
44.144096
 40
0.200000
 50
90.000000
  1
C=405
  0
TEXT
  8
2
  6
CONTINUOUS
 10
82.643058
 20
40.544096
 40
0.200000
 50
90.000000
  1
28
  0
TEXT
  8
2
  6
CONTINUOUS
 10
82.643058
 20
41.144096
 40
0.200000
 50
90.000000
  1
N2
  0
TEXT
  8
2
  6
CONTINUOUS
 10
82.643058
 20
41.744096
 40
0.200000
 50
90.000000
  1
%%c 10
  0
TEXT
  8
2
  6
CONTINUOUS
 10
82.643058
 20
42.744096
 40
0.200000
 50
90.000000
  1
C/17.5
  0
TEXT
  8
2
  6
CONTINUOUS
 10
82.643058
 20
44.144096
 40
0.200000
 50
90.000000
  1
C=405
  0
TEXT
  8
2
  6
CONTINUOUS
 10
30.652467
 20
26.106314
 40
0.200000
 50
90.000000
  1
17
  0
TEXT
  8
2
  6
CONTINUOUS
 10
30.652467
 20
26.706314
 40
0.200000
 50
90.000000
  1
N8
  0
TEXT
  8
2
  6
CONTINUOUS
 10
30.652467
 20
27.306314
 40
0.200000
 50
90.000000
  1
%%c 10
  0
TEXT
  8
2
  6
CONTINUOUS
 10
30.652467
 20
28.306314
 40
0.200000
 50
90.000000
  1
C/15
  0
TEXT
  8
2
  6
CONTINUOUS
 10
30.652467
 20
29.306314
 40
0.200000
 50
90.000000
  1
C=540
  0
TEXT
  8
2
  6
CONTINUOUS
 10
68.722927
 20
26.106314
 40
0.200000
 50
90.000000
  1
17
  0
TEXT
  8
2
  6
CONTINUOUS
 10
68.722927
 20
26.706314
 40
0.200000
 50
90.000000
  1
N8
  0
TEXT
  8
2
  6
CONTINUOUS
 10
68.722927
 20
27.306314
 40
0.200000
 50
90.000000
  1
%%c 10
  0
TEXT
  8
2
  6
CONTINUOUS
 10
68.722927
 20
28.306314
 40
0.200000
 50
90.000000
  1
C/15
  0
TEXT
  8
2
  6
CONTINUOUS
 10
68.722927
 20
29.306314
 40
0.200000
 50
90.000000
  1
C=540
  0
TEXT
  8
2
  6
CONTINUOUS
 10
108.174339
 20
50.988152
 40
0.250000
  1
COMPRIMENTO
  0
TEXT
  8
2
  6
CONTINUOUS
 10
109.744177
 20
50.550652
 40
0.250000
  1
TOTAL
  0
TEXT
  8
2
  6
CONTINUOUS
 10
108.271724
 20
50.550652
 40
0.250000
  1
UNIT
  0
TEXT
  8
2
  6
CONTINUOUS
 10
103.614870
 20
50.988152
 40
0.250000
  1
POS
  0
TEXT
  8
2
  6
CONTINUOUS
 10
105.224870
 20
50.988152
 40
0.250000
  1
BIT
  0
TEXT
  8
2
  6
CONTINUOUS
 10
106.521359
 20
50.988152
 40
0.250000
  1
QUANT
  0
TEXT
  8
2
  6
CONTINUOUS
 10
108.271724
 20
50.113152
 40
0.200000
  1
(cm)
  0
TEXT
  8
2
  6
CONTINUOUS
 10
109.881724
 20
50.113152
 40
0.200000
  1
(cm)
  0
TEXT
  8
2
  6
CONTINUOUS
 10
105.424870
 20
50.550652
 40
0.200000
  1
(mm)
  0
TEXT
  8
2
  6
CONTINUOUS
 10
102.234450
 20
50.988152
 40
0.250000
  1
AÇO
  0
TEXT
  8
2
  6
CONTINUOUS
 10
100.380668
 20
49.675652
 40
0.250000
  1
TIPO - Armadura positiva vertical   (X16)
  0
TEXT
  8
2
  6
CONTINUOUS
 10
101.574531
 20
49.306902
 40
0.200000
  1
     50A
  0
TEXT
  8
2
  6
CONTINUOUS
 10
103.814870
 20
49.306902
 40
0.200000
  1
  1
  0
TEXT
  8
2
  6
CONTINUOUS
 10
104.821413
 20
49.312946
 40
0.200000
  1
   10
  0
TEXT
  8
2
  6
CONTINUOUS
 10
106.804870
 20
49.306902
 40
0.200000
  1
  224
  0
TEXT
  8
2
  6
CONTINUOUS
 10
108.014870
 20
49.306902
 40
0.200000
  1
--VAR-
  0
TEXT
  8
2
  6
CONTINUOUS
 10
109.648492
 20
49.306902
 40
0.200000
  1
  55104
  0
TEXT
  8
2
  6
CONTINUOUS
 10
101.574531
 20
48.956902
 40
0.200000
  1
     50A
  0
TEXT
  8
2
  6
CONTINUOUS
 10
103.814870
 20
48.956902
 40
0.200000
  1
  2
  0
TEXT
  8
2
  6
CONTINUOUS
 10
104.821413
 20
48.962946
 40
0.200000
  1
   10
  0
TEXT
  8
2
  6
CONTINUOUS
 10
106.804870
 20
48.956902
 40
0.200000
  1
  896
  0
TEXT
  8
2
  6
CONTINUOUS
 10
108.014870
 20
48.956902
 40
0.200000
  1
   405
  0
TEXT
  8
2
  6
CONTINUOUS
 10
109.648492
 20
48.956902
 40
0.200000
  1
 362880
  0
TEXT
  8
2
  6
CONTINUOUS
 10
101.574531
 20
48.606902
 40
0.200000
  1
     50A
  0
TEXT
  8
2
  6
CONTINUOUS
 10
103.814870
 20
48.606902
 40
0.200000
  1
  3
  0
TEXT
  8
2
  6
CONTINUOUS
 10
104.821413
 20
48.612946
 40
0.200000
  1
    6.3
  0
TEXT
  8
2
  6
CONTINUOUS
 10
106.804870
 20
48.606902
 40
0.200000
  1
  864
  0
TEXT
  8
2
  6
CONTINUOUS
 10
108.014870
 20
48.606902
 40
0.200000
  1
   304
  0
TEXT
  8
2
  6
CONTINUOUS
 10
109.648492
 20
48.606902
 40
0.200000
  1
 262656
  0
TEXT
  8
2
  6
CONTINUOUS
 10
101.574531
 20
48.256902
 40
0.200000
  1
     50A
  0
TEXT
  8
2
  6
CONTINUOUS
 10
103.814870
 20
48.256902
 40
0.200000
  1
  4
  0
TEXT
  8
2
  6
CONTINUOUS
 10
104.821413
 20
48.262946
 40
0.200000
  1
   10
  0
TEXT
  8
2
  6
CONTINUOUS
 10
106.804870
 20
48.256902
 40
0.200000
  1
  736
  0
TEXT
  8
2
  6
CONTINUOUS
 10
108.014870
 20
48.256902
 40
0.200000
  1
   443
  0
TEXT
  8
2
  6
CONTINUOUS
 10
109.648492
 20
48.256902
 40
0.200000
  1
 326048
  0
TEXT
  8
2
  6
CONTINUOUS
 10
101.574531
 20
47.906902
 40
0.200000
  1
     50A
  0
TEXT
  8
2
  6
CONTINUOUS
 10
103.814870
 20
47.906902
 40
0.200000
  1
  5
  0
TEXT
  8
2
  6
CONTINUOUS
 10
104.821413
 20
47.912946
 40
0.200000
  1
    6.3
  0
TEXT
  8
2
  6
CONTINUOUS
 10
106.804870
 20
47.906902
 40
0.200000
  1
   96
  0
TEXT
  8
2
  6
CONTINUOUS
 10
108.014870
 20
47.906902
 40
0.200000
  1
--VAR-
  0
TEXT
  8
2
  6
CONTINUOUS
 10
109.648492
 20
47.906902
 40
0.200000
  1
  39264
  0
TEXT
  8
2
  6
CONTINUOUS
 10
101.574531
 20
47.556902
 40
0.200000
  1
     50A
  0
TEXT
  8
2
  6
CONTINUOUS
 10
103.814870
 20
47.556902
 40
0.200000
  1
  6
  0
TEXT
  8
2
  6
CONTINUOUS
 10
104.821413
 20
47.562946
 40
0.200000
  1
    6.3
  0
TEXT
  8
2
  6
CONTINUOUS
 10
106.804870
 20
47.556902
 40
0.200000
  1
  672
  0
TEXT
  8
2
  6
CONTINUOUS
 10
108.014870
 20
47.556902
 40
0.200000
  1
   605
  0
TEXT
  8
2
  6
CONTINUOUS
 10
109.648492
 20
47.556902
 40
0.200000
  1
 406560
  0
TEXT
  8
2
  6
CONTINUOUS
 10
101.574531
 20
47.206902
 40
0.200000
  1
     50A
  0
TEXT
  8
2
  6
CONTINUOUS
 10
103.814870
 20
47.206902
 40
0.200000
  1
  7
  0
TEXT
  8
2
  6
CONTINUOUS
 10
104.821413
 20
47.212946
 40
0.200000
  1
   10
  0
TEXT
  8
2
  6
CONTINUOUS
 10
106.804870
 20
47.206902
 40
0.200000
  1
  128
  0
TEXT
  8
2
  6
CONTINUOUS
 10
108.014870
 20
47.206902
 40
0.200000
  1
--VAR-
  0
TEXT
  8
2
  6
CONTINUOUS
 10
109.648492
 20
47.206902
 40
0.200000
  1
  61824
  0
TEXT
  8
2
  6
CONTINUOUS
 10
101.574531
 20
46.856902
 40
0.200000
  1
     50A
  0
TEXT
  8
2
  6
CONTINUOUS
 10
103.814870
 20
46.856902
 40
0.200000
  1
  8
  0
TEXT
  8
2
  6
CONTINUOUS
 10
104.821413
 20
46.862946
 40
0.200000
  1
   10
  0
TEXT
  8
2
  6
CONTINUOUS
 10
106.804870
 20
46.856902
 40
0.200000
  1
  544
  0
TEXT
  8
2
  6
CONTINUOUS
 10
108.014870
 20
46.856902
 40
0.200000
  1
   540
  0
TEXT
  8
2
  6
CONTINUOUS
 10
109.648492
 20
46.856902
 40
0.200000
  1
 293760
  0
TEXT
  8
2
  6
CONTINUOUS
 10
101.574531
 20
46.506903
 40
0.200000
  1
     50A
  0
TEXT
  8
2
  6
CONTINUOUS
 10
103.814870
 20
46.506903
 40
0.200000
  1
  9
  0
TEXT
  8
2
  6
CONTINUOUS
 10
104.821413
 20
46.512946
 40
0.200000
  1
    6.3
  0
TEXT
  8
2
  6
CONTINUOUS
 10
106.804870
 20
46.506903
 40
0.200000
  1
  416
  0
TEXT
  8
2
  6
CONTINUOUS
 10
108.014870
 20
46.506903
 40
0.200000
  1
   484
  0
TEXT
  8
2
  6
CONTINUOUS
 10
109.648492
 20
46.506903
 40
0.200000
  1
 201344
  0
TEXT
  8
2
  6
CONTINUOUS
 10
101.574531
 20
46.156903
 40
0.200000
  1
     50A
  0
TEXT
  8
2
  6
CONTINUOUS
 10
103.814870
 20
46.156903
 40
0.200000
  1
 10
  0
TEXT
  8
2
  6
CONTINUOUS
 10
104.821413
 20
46.162947
 40
0.200000
  1
    6.3
  0
TEXT
  8
2
  6
CONTINUOUS
 10
106.804870
 20
46.156903
 40
0.200000
  1
  736
  0
TEXT
  8
2
  6
CONTINUOUS
 10
108.014870
 20
46.156903
 40
0.200000
  1
   135
  0
TEXT
  8
2
  6
CONTINUOUS
 10
109.648492
 20
46.156903
 40
0.200000
  1
  99360
  0
TEXT
  8
2
  6
CONTINUOUS
 10
101.574531
 20
45.806903
 40
0.200000
  1
     50A
  0
TEXT
  8
2
  6
CONTINUOUS
 10
103.814870
 20
45.806903
 40
0.200000
  1
 11
  0
TEXT
  8
2
  6
CONTINUOUS
 10
104.821413
 20
45.812947
 40
0.200000
  1
    6.3
  0
TEXT
  8
2
  6
CONTINUOUS
 10
106.804870
 20
45.806903
 40
0.200000
  1
  288
  0
TEXT
  8
2
  6
CONTINUOUS
 10
108.014870
 20
45.806903
 40
0.200000
  1
   648
  0
TEXT
  8
2
  6
CONTINUOUS
 10
109.648492
 20
45.806903
 40
0.200000
  1
 186624
  0
TEXT
  8
2
  6
CONTINUOUS
 10
101.574531
 20
45.456903
 40
0.200000
  1
     50A
  0
TEXT
  8
2
  6
CONTINUOUS
 10
103.814870
 20
45.456903
 40
0.200000
  1
 12
  0
TEXT
  8
2
  6
CONTINUOUS
 10
104.821413
 20
45.462947
 40
0.200000
  1
    6.3
  0
TEXT
  8
2
  6
CONTINUOUS
 10
106.804870
 20
45.456903
 40
0.200000
  1
  128
  0
TEXT
  8
2
  6
CONTINUOUS
 10
108.014870
 20
45.456903
 40
0.200000
  1
   315
  0
TEXT
  8
2
  6
CONTINUOUS
 10
109.648492
 20
45.456903
 40
0.200000
  1
  40320
  0
TEXT
  8
2
  6
CONTINUOUS
 10
101.574531
 20
45.106903
 40
0.200000
  1
     50A
  0
TEXT
  8
2
  6
CONTINUOUS
 10
103.814870
 20
45.106903
 40
0.200000
  1
 13
  0
TEXT
  8
2
  6
CONTINUOUS
 10
104.821413
 20
45.112947
 40
0.200000
  1
    6.3
  0
TEXT
  8
2
  6
CONTINUOUS
 10
106.804870
 20
45.106903
 40
0.200000
  1
  160
  0
TEXT
  8
2
  6
CONTINUOUS
 10
108.014870
 20
45.106903
 40
0.200000
  1
   275
  0
TEXT
  8
2
  6
CONTINUOUS
 10
109.648492
 20
45.106903
 40
0.200000
  1
  44000
  0
TEXT
  8
2
  6
CONTINUOUS
 10
101.574531
 20
44.756903
 40
0.200000
  1
     50A
  0
TEXT
  8
2
  6
CONTINUOUS
 10
103.814870
 20
44.756903
 40
0.200000
  1
 14
  0
TEXT
  8
2
  6
CONTINUOUS
 10
104.821413
 20
44.762947
 40
0.200000
  1
    6.3
  0
TEXT
  8
2
  6
CONTINUOUS
 10
106.804870
 20
44.756903
 40
0.200000
  1
   96
  0
TEXT
  8
2
  6
CONTINUOUS
 10
108.014870
 20
44.756903
 40
0.200000
  1
   150
  0
TEXT
  8
2
  6
CONTINUOUS
 10
109.648492
 20
44.756903
 40
0.200000
  1
  14400
  0
TEXT
  8
2
  6
CONTINUOUS
 10
101.574531
 20
44.406903
 40
0.200000
  1
     50A
  0
TEXT
  8
2
  6
CONTINUOUS
 10
103.814870
 20
44.406903
 40
0.200000
  1
 15
  0
TEXT
  8
2
  6
CONTINUOUS
 10
104.821413
 20
44.412947
 40
0.200000
  1
    6.3
  0
TEXT
  8
2
  6
CONTINUOUS
 10
106.804870
 20
44.406903
 40
0.200000
  1
  144
  0
TEXT
  8
2
  6
CONTINUOUS
 10
108.014870
 20
44.406903
 40
0.200000
  1
   199
  0
TEXT
  8
2
  6
CONTINUOUS
 10
109.648492
 20
44.406903
 40
0.200000
  1
  28656
  0
TEXT
  8
2
  6
CONTINUOUS
 10
101.574531
 20
44.056903
 40
0.200000
  1
     50A
  0
TEXT
  8
2
  6
CONTINUOUS
 10
103.814870
 20
44.056903
 40
0.200000
  1
 16
  0
TEXT
  8
2
  6
CONTINUOUS
 10
104.821413
 20
44.062947
 40
0.200000
  1
   10
  0
TEXT
  8
2
  6
CONTINUOUS
 10
106.804870
 20
44.056903
 40
0.200000
  1
  128
  0
TEXT
  8
2
  6
CONTINUOUS
 10
108.014870
 20
44.056903
 40
0.200000
  1
--VAR-
  0
TEXT
  8
2
  6
CONTINUOUS
 10
109.648492
 20
44.056903
 40
0.200000
  1
  61824
  0
TEXT
  8
2
  6
CONTINUOUS
 10
101.574531
 20
43.706903
 40
0.200000
  1
     50A
  0
TEXT
  8
2
  6
CONTINUOUS
 10
103.814870
 20
43.706903
 40
0.200000
  1
 17
  0
TEXT
  8
2
  6
CONTINUOUS
 10
104.821413
 20
43.712947
 40
0.200000
  1
    6.3
  0
TEXT
  8
2
  6
CONTINUOUS
 10
106.804870
 20
43.706903
 40
0.200000
  1
  768
  0
TEXT
  8
2
  6
CONTINUOUS
 10
108.014870
 20
43.706903
 40
0.200000
  1
   335
  0
TEXT
  8
2
  6
CONTINUOUS
 10
109.648492
 20
43.706903
 40
0.200000
  1
 257280
  0
TEXT
  8
2
  6
CONTINUOUS
 10
101.574531
 20
43.356903
 40
0.200000
  1
     50A
  0
TEXT
  8
2
  6
CONTINUOUS
 10
103.814870
 20
43.356903
 40
0.200000
  1
 18
  0
TEXT
  8
2
  6
CONTINUOUS
 10
104.821413
 20
43.362947
 40
0.200000
  1
    6.3
  0
TEXT
  8
2
  6
CONTINUOUS
 10
106.804870
 20
43.356903
 40
0.200000
  1
  576
  0
TEXT
  8
2
  6
CONTINUOUS
 10
108.014870
 20
43.356903
 40
0.200000
  1
   394
  0
TEXT
  8
2
  6
CONTINUOUS
 10
109.648492
 20
43.356903
 40
0.200000
  1
 226944
  0
TEXT
  8
2
  6
CONTINUOUS
 10
101.574531
 20
43.006904
 40
0.200000
  1
     50A
  0
TEXT
  8
2
  6
CONTINUOUS
 10
103.814870
 20
43.006904
 40
0.200000
  1
 19
  0
TEXT
  8
2
  6
CONTINUOUS
 10
104.821413
 20
43.012947
 40
0.200000
  1
    6.3
  0
TEXT
  8
2
  6
CONTINUOUS
 10
106.804870
 20
43.006904
 40
0.200000
  1
  112
  0
TEXT
  8
2
  6
CONTINUOUS
 10
108.014870
 20
43.006904
 40
0.200000
  1
--VAR-
  0
TEXT
  8
2
  6
CONTINUOUS
 10
109.648492
 20
43.006904
 40
0.200000
  1
  34048
  0
TEXT
  8
2
  6
CONTINUOUS
 10
101.574531
 20
42.656904
 40
0.200000
  1
     50A
  0
TEXT
  8
2
  6
CONTINUOUS
 10
103.814870
 20
42.656904
 40
0.200000
  1
 20
  0
TEXT
  8
2
  6
CONTINUOUS
 10
104.821413
 20
42.662948
 40
0.200000
  1
    6.3
  0
TEXT
  8
2
  6
CONTINUOUS
 10
106.804870
 20
42.656904
 40
0.200000
  1
  288
  0
TEXT
  8
2
  6
CONTINUOUS
 10
108.014870
 20
42.656904
 40
0.200000
  1
   814
  0
TEXT
  8
2
  6
CONTINUOUS
 10
109.648492
 20
42.656904
 40
0.200000
  1
 234432
  0
TEXT
  8
2
  6
CONTINUOUS
 10
101.574531
 20
42.306904
 40
0.200000
  1
     50A
  0
TEXT
  8
2
  6
CONTINUOUS
 10
103.814870
 20
42.306904
 40
0.200000
  1
 21
  0
TEXT
  8
2
  6
CONTINUOUS
 10
104.821413
 20
42.312948
 40
0.200000
  1
    6.3
  0
TEXT
  8
2
  6
CONTINUOUS
 10
106.804870
 20
42.306904
 40
0.200000
  1
  288
  0
TEXT
  8
2
  6
CONTINUOUS
 10
108.014870
 20
42.306904
 40
0.200000
  1
   189
  0
TEXT
  8
2
  6
CONTINUOUS
 10
109.648492
 20
42.306904
 40
0.200000
  1
  54432
  0
TEXT
  8
2
  6
CONTINUOUS
 10
101.574531
 20
41.956904
 40
0.200000
  1
     50A
  0
TEXT
  8
2
  6
CONTINUOUS
 10
103.814870
 20
41.956904
 40
0.200000
  1
 22
  0
TEXT
  8
2
  6
CONTINUOUS
 10
104.821413
 20
41.962948
 40
0.200000
  1
    6.3
  0
TEXT
  8
2
  6
CONTINUOUS
 10
106.804870
 20
41.956904
 40
0.200000
  1
  288
  0
TEXT
  8
2
  6
CONTINUOUS
 10
108.014870
 20
41.956904
 40
0.200000
  1
   628
  0
TEXT
  8
2
  6
CONTINUOUS
 10
109.648492
 20
41.956904
 40
0.200000
  1
 180864
  0
TEXT
  8
2
  6
CONTINUOUS
 10
101.574531
 20
41.606904
 40
0.200000
  1
     50A
  0
TEXT
  8
2
  6
CONTINUOUS
 10
103.814870
 20
41.606904
 40
0.200000
  1
 23
  0
TEXT
  8
2
  6
CONTINUOUS
 10
104.821413
 20
41.612948
 40
0.200000
  1
    6.3
  0
TEXT
  8
2
  6
CONTINUOUS
 10
106.804870
 20
41.606904
 40
0.200000
  1
  224
  0
TEXT
  8
2
  6
CONTINUOUS
 10
108.014870
 20
41.606904
 40
0.200000
  1
   307
  0
TEXT
  8
2
  6
CONTINUOUS
 10
109.648492
 20
41.606904
 40
0.200000
  1
  68768
  0
TEXT
  8
2
  6
CONTINUOUS
 10
101.574531
 20
41.256904
 40
0.200000
  1
     50A
  0
TEXT
  8
2
  6
CONTINUOUS
 10
103.814870
 20
41.256904
 40
0.200000
  1
 24
  0
TEXT
  8
2
  6
CONTINUOUS
 10
104.821413
 20
41.262948
 40
0.200000
  1
    6.3
  0
TEXT
  8
2
  6
CONTINUOUS
 10
106.804870
 20
41.256904
 40
0.200000
  1
   64
  0
TEXT
  8
2
  6
CONTINUOUS
 10
108.014870
 20
41.256904
 40
0.200000
  1
   120
  0
TEXT
  8
2
  6
CONTINUOUS
 10
109.648492
 20
41.256904
 40
0.200000
  1
   7680
  0
TEXT
  8
2
  6
CONTINUOUS
 10
101.574531
 20
40.906904
 40
0.200000
  1
     50A
  0
TEXT
  8
2
  6
CONTINUOUS
 10
103.814870
 20
40.906904
 40
0.200000
  1
 25
  0
TEXT
  8
2
  6
CONTINUOUS
 10
104.821413
 20
40.912948
 40
0.200000
  1
    8
  0
TEXT
  8
2
  6
CONTINUOUS
 10
106.804870
 20
40.906904
 40
0.200000
  1
  832
  0
TEXT
  8
2
  6
CONTINUOUS
 10
108.014870
 20
40.906904
 40
0.200000
  1
   673
  0
TEXT
  8
2
  6
CONTINUOUS
 10
109.648492
 20
40.906904
 40
0.200000
  1
 559936
  0
TEXT
  8
2
  6
CONTINUOUS
 10
101.574531
 20
40.556904
 40
0.200000
  1
     50A
  0
TEXT
  8
2
  6
CONTINUOUS
 10
103.814870
 20
40.556904
 40
0.200000
  1
 26
  0
TEXT
  8
2
  6
CONTINUOUS
 10
104.821413
 20
40.562948
 40
0.200000
  1
    6.3
  0
TEXT
  8
2
  6
CONTINUOUS
 10
106.804870
 20
40.556904
 40
0.200000
  1
  608
  0
TEXT
  8
2
  6
CONTINUOUS
 10
108.014870
 20
40.556904
 40
0.200000
  1
   262
  0
TEXT
  8
2
  6
CONTINUOUS
 10
109.648492
 20
40.556904
 40
0.200000
  1
 159296
  0
TEXT
  8
2
  6
CONTINUOUS
 10
101.574531
 20
40.206904
 40
0.200000
  1
     50A
  0
TEXT
  8
2
  6
CONTINUOUS
 10
103.814870
 20
40.206904
 40
0.200000
  1
 27
  0
TEXT
  8
2
  6
CONTINUOUS
 10
104.821413
 20
40.212948
 40
0.200000
  1
    8
  0
TEXT
  8
2
  6
CONTINUOUS
 10
106.804870
 20
40.206904
 40
0.200000
  1
  256
  0
TEXT
  8
2
  6
CONTINUOUS
 10
108.014870
 20
40.206904
 40
0.200000
  1
   438
  0
TEXT
  8
2
  6
CONTINUOUS
 10
109.648492
 20
40.206904
 40
0.200000
  1
 112128
  0
TEXT
  8
2
  6
CONTINUOUS
 10
101.574531
 20
39.856904
 40
0.200000
  1
     50A
  0
TEXT
  8
2
  6
CONTINUOUS
 10
103.814870
 20
39.856904
 40
0.200000
  1
 28
  0
TEXT
  8
2
  6
CONTINUOUS
 10
104.821413
 20
39.862948
 40
0.200000
  1
    8
  0
TEXT
  8
2
  6
CONTINUOUS
 10
106.804870
 20
39.856904
 40
0.200000
  1
   64
  0
TEXT
  8
2
  6
CONTINUOUS
 10
108.014870
 20
39.856904
 40
0.200000
  1
   145
  0
TEXT
  8
2
  6
CONTINUOUS
 10
109.648492
 20
39.856904
 40
0.200000
  1
   9280
  0
TEXT
  8
2
  6
CONTINUOUS
 10
101.574531
 20
39.506904
 40
0.200000
  1
     50A
  0
TEXT
  8
2
  6
CONTINUOUS
 10
103.814870
 20
39.506904
 40
0.200000
  1
 29
  0
TEXT
  8
2
  6
CONTINUOUS
 10
104.821413
 20
39.512948
 40
0.200000
  1
    8
  0
TEXT
  8
2
  6
CONTINUOUS
 10
106.804870
 20
39.506904
 40
0.200000
  1
  208
  0
TEXT
  8
2
  6
CONTINUOUS
 10
108.014870
 20
39.506904
 40
0.200000
  1
   110
  0
TEXT
  8
2
  6
CONTINUOUS
 10
109.648492
 20
39.506904
 40
0.200000
  1
  22880
  0
TEXT
  8
2
  6
CONTINUOUS
 10
101.574531
 20
39.156905
 40
0.200000
  1
     50A
  0
TEXT
  8
2
  6
CONTINUOUS
 10
103.814870
 20
39.156905
 40
0.200000
  1
 30
  0
TEXT
  8
2
  6
CONTINUOUS
 10
104.821413
 20
39.162948
 40
0.200000
  1
    8
  0
TEXT
  8
2
  6
CONTINUOUS
 10
106.804870
 20
39.156905
 40
0.200000
  1
  208
  0
TEXT
  8
2
  6
CONTINUOUS
 10
108.014870
 20
39.156905
 40
0.200000
  1
   331
  0
TEXT
  8
2
  6
CONTINUOUS
 10
109.648492
 20
39.156905
 40
0.200000
  1
  68848
  0
TEXT
  8
2
  6
CONTINUOUS
 10
101.574531
 20
38.806905
 40
0.200000
  1
     50A
  0
TEXT
  8
2
  6
CONTINUOUS
 10
103.814870
 20
38.806905
 40
0.200000
  1
 31
  0
TEXT
  8
2
  6
CONTINUOUS
 10
104.821413
 20
38.812949
 40
0.200000
  1
    8
  0
TEXT
  8
2
  6
CONTINUOUS
 10
106.804870
 20
38.806905
 40
0.200000
  1
  432
  0
TEXT
  8
2
  6
CONTINUOUS
 10
108.014870
 20
38.806905
 40
0.200000
  1
   542
  0
TEXT
  8
2
  6
CONTINUOUS
 10
109.648492
 20
38.806905
 40
0.200000
  1
 234144
  0
TEXT
  8
2
  6
CONTINUOUS
 10
101.574531
 20
38.456905
 40
0.200000
  1
     50A
  0
TEXT
  8
2
  6
CONTINUOUS
 10
103.814870
 20
38.456905
 40
0.200000
  1
 32
  0
TEXT
  8
2
  6
CONTINUOUS
 10
104.821413
 20
38.462949
 40
0.200000
  1
    6.3
  0
TEXT
  8
2
  6
CONTINUOUS
 10
106.804870
 20
38.456905
 40
0.200000
  1
  112
  0
TEXT
  8
2
  6
CONTINUOUS
 10
108.014870
 20
38.456905
 40
0.200000
  1
--VAR-
  0
TEXT
  8
2
  6
CONTINUOUS
 10
109.648492
 20
38.456905
 40
0.200000
  1
  33824
  0
TEXT
  8
2
  6
CONTINUOUS
 10
105.593711
 20
36.604256
 40
0.250000
  1
COMPR
  0
TEXT
  8
2
  6
CONTINUOUS
 10
109.222710
 20
36.604256
 40
0.250000
  1
PESO
  0
TEXT
  8
2
  6
CONTINUOUS
 10
103.628731
 20
36.173155
 40
0.200000
  1
(mm)
  0
TEXT
  8
2
  6
CONTINUOUS
 10
105.771016
 20
36.173155
 40
0.200000
  1
(m)
  0
TEXT
  8
2
  6
CONTINUOUS
 10
109.291312
 20
36.173155
 40
0.200000
  1
(kg)
  0
TEXT
  8
2
  6
CONTINUOUS
 10
103.614870
 20
36.600655
 40
0.250000
  1
BIT
  0
TEXT
  8
2
  6
CONTINUOUS
 10
103.465367
 20
37.038155
 40
0.250000
  1
RESUMO AÇO CA  50-60
  0
TEXT
  8
2
  6
CONTINUOUS
 10
102.004450
 20
36.600655
 40
0.250000
  1
AÇO
  0
TEXT
  8
2
  6
CONTINUOUS
 10
105.352528
 20
35.794405
 40
0.200000
  1
   25808
  0
TEXT
  8
2
  6
CONTINUOUS
 10
109.200135
 20
35.794405
 40
0.200000
  1
   6323
  0
TEXT
  8
2
  6
CONTINUOUS
 10
103.111412
 20
35.800449
 40
0.200000
  1
    6.3
  0
TEXT
  8
2
  6
CONTINUOUS
 10
100.944531
 20
35.794405
 40
0.200000
  1
     50A
  0
TEXT
  8
2
  6
CONTINUOUS
 10
105.352528
 20
35.444405
 40
0.200000
  1
   10072
  0
TEXT
  8
2
  6
CONTINUOUS
 10
109.200135
 20
35.444405
 40
0.200000
  1
   3979
  0
TEXT
  8
2
  6
CONTINUOUS
 10
103.111412
 20
35.450448
 40
0.200000
  1
    8
  0
TEXT
  8
2
  6
CONTINUOUS
 10
100.944531
 20
35.444404
 40
0.200000
  1
     50A
  0
TEXT
  8
2
  6
CONTINUOUS
 10
105.352528
 20
35.094405
 40
0.200000
  1
   11614
  0
TEXT
  8
2
  6
CONTINUOUS
 10
109.200135
 20
35.094405
 40
0.200000
  1
   7166
  0
TEXT
  8
2
  6
CONTINUOUS
 10
103.111412
 20
35.100448
 40
0.200000
  1
   10
  0
TEXT
  8
2
  6
CONTINUOUS
 10
100.944531
 20
35.094404
 40
0.200000
  1
     50A
  0
TEXT
  8
2
  6
CONTINUOUS
 10
100.577699
 20
34.675654
 40
0.250000
  1
Peso Total        50A =
  0
TEXT
  8
2
  6
CONTINUOUS
 10
107.941874
 20
34.675654
 40
0.250000
  1
  17467 kg
  0
TEXT
  8
2
  6
CONTINUOUS
 10
86.085538
 20
22.970602
 40
0.250000
  1
N14, N24 e N28
  0
ENDSEC
  0
EOF
